  0
SECTION
  2
HEADER
  9
$ACADVER
  1
AC1027
  9
$ACADMAINTVER
 70
   105
  9
$DWGCODEPAGE
  3
ANSI_1252
  9
$AUTHOR
  1
tlegneli
  9
$LASTSAVEDBY
  1
jernberg
  9
$REQUIREDVERSIONS
160
                 0
  9
$INSBASE
 10
0.0
 20
0.0
 30
0.0
  9
$EXTMIN
 10
127814.57956772
 20
6568028.982137073
 30
-20.87047393818871
  9
$EXTMAX
 10
127862.609236179
 20
6568067.828476577
 30
20.939
  9
$LIMMIN
 10
0.0
 20
0.0
  9
$LIMMAX
 10
420.0
 20
297.0
  9
$ORTHOMODE
 70
     0
  9
$REGENMODE
 70
     1
  9
$FILLMODE
 70
     1
  9
$QTEXTMODE
 70
     0
  9
$MIRRTEXT
 70
     1
  9
$LTSCALE
 40
1.0
  9
$ATTMODE
 70
     1
  9
$TEXTSIZE
 40
2.5
  9
$TRACEWID
 40
1.0
  9
$TEXTSTYLE
  7
Standard
  9
$CLAYER
  8
0
  9
$CELTYPE
  6
ByLayer
  9
$CECOLOR
 62
   256
  9
$CELTSCALE
 40
1.0
  9
$DISPSILH
 70
     0
  9
$DIMSCALE
 40
1.0
  9
$DIMASZ
 40
2.5
  9
$DIMEXO
 40
0.625
  9
$DIMDLI
 40
3.75
  9
$DIMRND
 40
0.0
  9
$DIMDLE
 40
0.0
  9
$DIMEXE
 40
1.25
  9
$DIMTP
 40
0.0
  9
$DIMTM
 40
0.0
  9
$DIMTXT
 40
2.5
  9
$DIMCEN
 40
2.5
  9
$DIMTSZ
 40
0.0
  9
$DIMTOL
 70
     0
  9
$DIMLIM
 70
     0
  9
$DIMTIH
 70
     0
  9
$DIMTOH
 70
     0
  9
$DIMSE1
 70
     0
  9
$DIMSE2
 70
     0
  9
$DIMTAD
 70
     1
  9
$DIMZIN
 70
     8
  9
$DIMBLK
  1

  9
$DIMASO
 70
     1
  9
$DIMSHO
 70
     1
  9
$DIMPOST
  1

  9
$DIMAPOST
  1

  9
$DIMALT
 70
     0
  9
$DIMALTD
 70
     3
  9
$DIMALTF
 40
0.03937007874016
  9
$DIMLFAC
 40
1.0
  9
$DIMTOFL
 70
     1
  9
$DIMTVP
 40
0.0
  9
$DIMTIX
 70
     0
  9
$DIMSOXD
 70
     0
  9
$DIMSAH
 70
     0
  9
$DIMBLK1
  1

  9
$DIMBLK2
  1

  9
$DIMSTYLE
  2
ISO-25
  9
$DIMCLRD
 70
     0
  9
$DIMCLRE
 70
     0
  9
$DIMCLRT
 70
     0
  9
$DIMTFAC
 40
1.0
  9
$DIMGAP
 40
0.625
  9
$DIMJUST
 70
     0
  9
$DIMSD1
 70
     0
  9
$DIMSD2
 70
     0
  9
$DIMTOLJ
 70
     0
  9
$DIMTZIN
 70
     8
  9
$DIMALTZ
 70
     0
  9
$DIMALTTZ
 70
     0
  9
$DIMUPT
 70
     0
  9
$DIMDEC
 70
     2
  9
$DIMTDEC
 70
     2
  9
$DIMALTU
 70
     2
  9
$DIMALTTD
 70
     3
  9
$DIMTXSTY
  7
Standard
  9
$DIMAUNIT
 70
     0
  9
$DIMADEC
 70
     0
  9
$DIMALTRND
 40
0.0
  9
$DIMAZIN
 70
     0
  9
$DIMDSEP
 70
    44
  9
$DIMATFIT
 70
     3
  9
$DIMFRAC
 70
     0
  9
$DIMLDRBLK
  1

  9
$DIMLUNIT
 70
     2
  9
$DIMLWD
 70
    -2
  9
$DIMLWE
 70
    -2
  9
$DIMTMOVE
 70
     0
  9
$DIMFXL
 40
1.0
  9
$DIMFXLON
 70
     0
  9
$DIMJOGANG
 40
0.7853981633974483
  9
$DIMTFILL
 70
     0
  9
$DIMTFILLCLR
 70
     0
  9
$DIMARCSYM
 70
     0
  9
$DIMLTYPE
  6

  9
$DIMLTEX1
  6

  9
$DIMLTEX2
  6

  9
$DIMTXTDIRECTION
 70
     0
  9
$LUNITS
 70
     2
  9
$LUPREC
 70
     4
  9
$SKETCHINC
 40
1.0
  9
$FILLETRAD
 40
10.0
  9
$AUNITS
 70
     0
  9
$AUPREC
 70
     0
  9
$MENU
  1
.
  9
$ELEVATION
 40
0.0
  9
$PELEVATION
 40
0.0
  9
$THICKNESS
 40
0.0
  9
$LIMCHECK
 70
     0
  9
$CHAMFERA
 40
0.0
  9
$CHAMFERB
 40
0.0
  9
$CHAMFERC
 40
0.0
  9
$CHAMFERD
 40
0.0
  9
$SKPOLY
 70
     0
  9
$TDCREATE
 40
2458345.432514236
  9
$TDUCREATE
 40
2458345.390847569
  9
$TDUPDATE
 40
2458443.599736655
  9
$TDUUPDATE
 40
2458443.558069989
  9
$TDINDWG
 40
0.0228623727
  9
$TDUSRTIMER
 40
0.0228623727
  9
$USRTIMER
 70
     1
  9
$ANGBASE
 50
0.0
  9
$ANGDIR
 70
     0
  9
$PDMODE
 70
     0
  9
$PDSIZE
 40
0.0
  9
$PLINEWID
 40
0.0
  9
$SPLFRAME
 70
     0
  9
$SPLINETYPE
 70
     6
  9
$SPLINESEGS
 70
     8
  9
$HANDSEED
  5
31B
  9
$SURFTAB1
 70
     6
  9
$SURFTAB2
 70
     6
  9
$SURFTYPE
 70
     6
  9
$SURFU
 70
     6
  9
$SURFV
 70
     6
  9
$UCSBASE
  2

  9
$UCSNAME
  2

  9
$UCSORG
 10
0.0
 20
0.0
 30
0.0
  9
$UCSXDIR
 10
1.0
 20
0.0
 30
0.0
  9
$UCSYDIR
 10
0.0
 20
1.0
 30
0.0
  9
$UCSORTHOREF
  2

  9
$UCSORTHOVIEW
 70
     0
  9
$UCSORGTOP
 10
0.0
 20
0.0
 30
0.0
  9
$UCSORGBOTTOM
 10
0.0
 20
0.0
 30
0.0
  9
$UCSORGLEFT
 10
0.0
 20
0.0
 30
0.0
  9
$UCSORGRIGHT
 10
0.0
 20
0.0
 30
0.0
  9
$UCSORGFRONT
 10
0.0
 20
0.0
 30
0.0
  9
$UCSORGBACK
 10
0.0
 20
0.0
 30
0.0
  9
$PUCSBASE
  2

  9
$PUCSNAME
  2

  9
$PUCSORG
 10
0.0
 20
0.0
 30
0.0
  9
$PUCSXDIR
 10
1.0
 20
0.0
 30
0.0
  9
$PUCSYDIR
 10
0.0
 20
1.0
 30
0.0
  9
$PUCSORTHOREF
  2

  9
$PUCSORTHOVIEW
 70
     0
  9
$PUCSORGTOP
 10
0.0
 20
0.0
 30
0.0
  9
$PUCSORGBOTTOM
 10
0.0
 20
0.0
 30
0.0
  9
$PUCSORGLEFT
 10
0.0
 20
0.0
 30
0.0
  9
$PUCSORGRIGHT
 10
0.0
 20
0.0
 30
0.0
  9
$PUCSORGFRONT
 10
0.0
 20
0.0
 30
0.0
  9
$PUCSORGBACK
 10
0.0
 20
0.0
 30
0.0
  9
$USERI1
 70
     0
  9
$USERI2
 70
     0
  9
$USERI3
 70
     0
  9
$USERI4
 70
     0
  9
$USERI5
 70
     0
  9
$USERR1
 40
0.0
  9
$USERR2
 40
0.0
  9
$USERR3
 40
0.0
  9
$USERR4
 40
0.0
  9
$USERR5
 40
0.0
  9
$WORLDVIEW
 70
     1
  9
$SHADEDGE
 70
     3
  9
$SHADEDIF
 70
    70
  9
$TILEMODE
 70
     1
  9
$MAXACTVP
 70
    64
  9
$PINSBASE
 10
0.0
 20
0.0
 30
0.0
  9
$PLIMCHECK
 70
     0
  9
$PEXTMIN
 10
1.000000000000000E+20
 20
1.000000000000000E+20
 30
1.000000000000000E+20
  9
$PEXTMAX
 10
-1.000000000000000E+20
 20
-1.000000000000000E+20
 30
-1.000000000000000E+20
  9
$PLIMMIN
 10
0.0
 20
0.0
  9
$PLIMMAX
 10
420.0
 20
297.0
  9
$UNITMODE
 70
     0
  9
$VISRETAIN
 70
     1
  9
$PLINEGEN
 70
     0
  9
$PSLTSCALE
 70
     1
  9
$TREEDEPTH
 70
  3020
  9
$CMLSTYLE
  2
Standard
  9
$CMLJUST
 70
     0
  9
$CMLSCALE
 40
20.0
  9
$PROXYGRAPHICS
 70
     1
  9
$MEASUREMENT
 70
     1
  9
$CELWEIGHT
370
    -1
  9
$ENDCAPS
280
     0
  9
$JOINSTYLE
280
     0
  9
$LWDISPLAY
290
     1
  9
$INSUNITS
 70
     6
  9
$HYPERLINKBASE
  1

  9
$STYLESHEET
  1

  9
$XEDIT
290
     1
  9
$CEPSNTYPE
380
     0
  9
$PSTYLEMODE
290
     1
  9
$FINGERPRINTGUID
  2
{6ABBC8E8-C36B-414F-A7E1-1E1A07A88C14}
  9
$VERSIONGUID
  2
{F42E4E84-BA03-4096-B74A-2F8B23EFFF4A}
  9
$EXTNAMES
290
     1
  9
$PSVPSCALE
 40
0.0
  9
$OLESTARTUP
290
     0
  9
$SORTENTS
280
   127
  9
$INDEXCTL
280
     0
  9
$HIDETEXT
280
     1
  9
$XCLIPFRAME
280
     2
  9
$HALOGAP
280
     0
  9
$OBSCOLOR
 70
   257
  9
$OBSLTYPE
280
     0
  9
$INTERSECTIONDISPLAY
280
     0
  9
$INTERSECTIONCOLOR
 70
   257
  9
$DIMASSOC
280
     2
  9
$PROJECTNAME
  1

  9
$CAMERADISPLAY
290
     0
  9
$LENSLENGTH
 40
50.0
  9
$CAMERAHEIGHT
 40
0.0
  9
$STEPSPERSEC
 40
2.0
  9
$STEPSIZE
 40
6.0
  9
$3DDWFPREC
 40
2.0
  9
$PSOLWIDTH
 40
5.0
  9
$PSOLHEIGHT
 40
80.0
  9
$LOFTANG1
 40
1.570796326794896
  9
$LOFTANG2
 40
1.570796326794896
  9
$LOFTMAG1
 40
0.0
  9
$LOFTMAG2
 40
0.0
  9
$LOFTPARAM
 70
     7
  9
$LOFTNORMALS
280
     1
  9
$LATITUDE
 40
37.795
  9
$LONGITUDE
 40
-122.394
  9
$NORTHDIRECTION
 40
0.0
  9
$TIMEZONE
 70
 -8000
  9
$LIGHTGLYPHDISPLAY
280
     1
  9
$TILEMODELIGHTSYNCH
280
     1
  9
$CMATERIAL
347
44
  9
$SOLIDHIST
280
     0
  9
$SHOWHIST
280
     1
  9
$DWFFRAME
280
     2
  9
$DGNFRAME
280
     2
  9
$REALWORLDSCALE
290
     1
  9
$INTERFERECOLOR
 62
   256
  9
$INTERFEREOBJVS
345
33
  9
$INTERFEREVPVS
346
30
  9
$CSHADOW
280
     0
  9
$SHADOWPLANELOCATION
 40
0.0
  0
ENDSEC
  0
SECTION
  2
CLASSES
  0
CLASS
  1
ACDBDICTIONARYWDFLT
  2
AcDbDictionaryWithDefault
  3
ObjectDBX Classes
 90
        0
 91
        1
280
     0
281
     0
  0
CLASS
  1
VISUALSTYLE
  2
AcDbVisualStyle
  3
ObjectDBX Classes
 90
     4095
 91
       24
280
     0
281
     0
  0
CLASS
  1
MATERIAL
  2
AcDbMaterial
  3
ObjectDBX Classes
 90
     1153
 91
        3
280
     0
281
     0
  0
CLASS
  1
SCALE
  2
AcDbScale
  3
ObjectDBX Classes
 90
     1153
 91
       33
280
     0
281
     0
  0
CLASS
  1
TABLESTYLE
  2
AcDbTableStyle
  3
ObjectDBX Classes
 90
     4095
 91
        2
280
     0
281
     0
  0
CLASS
  1
MLEADERSTYLE
  2
AcDbMLeaderStyle
  3
ACDB_MLEADERSTYLE_CLASS
 90
     4095
 91
        1
280
     0
281
     0
  0
CLASS
  1
SUN
  2
AcDbSun
  3
SCENEOE
 90
     1153
 91
        1
280
     0
281
     0
  0
CLASS
  1
DICTIONARYVAR
  2
AcDbDictionaryVar
  3
ObjectDBX Classes
 90
        0
 91
       11
280
     0
281
     0
  0
CLASS
  1
ACDBSECTIONVIEWSTYLE
  2
AcDbSectionViewStyle
  3
ObjectDBX Classes
 90
     1025
 91
        1
280
     0
281
     0
  0
CLASS
  1
ACDBDETAILVIEWSTYLE
  2
AcDbDetailViewStyle
  3
ObjectDBX Classes
 90
     1025
 91
        1
280
     0
281
     0
  0
CLASS
  1
DMMAPMANAGER
  2
AcMapDMMapManager
  3
AcMapDisplayManagement
 90
     1024
 91
        1
280
     0
281
     0
  0
CLASS
  1
DMSTYLELIBRARY
  2
AcMapDMStyleLibrary
  3
AcMapDisplayManagement
 90
     1024
 91
        1
280
     0
281
     0
  0
CLASS
  1
DMSTYLECATEGORY
  2
AcMapDMStyleCategory
  3
AcMapDisplayManagement
 90
     1024
 91
        1
280
     0
281
     0
  0
CLASS
  1
DATATABLE
  2
AcDbDataTable
  3
ObjectDBX Classes
 90
        0
 91
        1
280
     0
281
     0
  0
CLASS
  1
MAPRESOURCEMANAGEROBJECT
  2
AcMapResourceManager
  3
AcMapSharedComponents
 90
     1024
 91
        1
280
     0
281
     0
  0
CLASS
  1
MAPGWSUNDOOBJECT
  2
AcMapGWSUndoRecorder
  3
AcMapFeatureSourceManager
 90
     1025
 91
        1
280
     0
281
     0
  0
CLASS
  1
DMMAP
  2
AcMapDMMap
  3
AcMapDisplayManagement
 90
     1024
 91
        1
280
     0
281
     0
  0
CLASS
  1
DMBASEELEMENT
  2
AcMapDMBaseElement
  3
AcMapDisplayManagement
 90
     1024
 91
        1
280
     0
281
     0
  0
CLASS
  1
DMDEFAULTSTYLE
  2
AcMapDMDefaultStyle
  3
AcMapDisplayManagement
 90
     1024
 91
        1
280
     0
281
     0
  0
CLASS
  1
DMSTYLEREFERENCE
  2
AcMapDMStyleReference
  3
AcMapDisplayManagement
 90
     1024
 91
        1
280
     0
281
     0
  0
CLASS
  1
DMSURROGATESTYLESETS
  2
AcMapDMSurrogateStyleSets
  3
AcMapDisplayManagement
 90
     1153
 91
        1
280
     0
281
     0
  0
CLASS
  1
SORTENTSTABLE
  2
AcDbSortentsTable
  3
ObjectDBX Classes
 90
        0
 91
        1
280
     0
281
     0
  0
CLASS
  1
DMSTYLIZEDENTITIESTABLE
  2
AcMapDMStylizedEntitiesTable
  3
AcMapDisplayManagement
 90
     1024
 91
        1
280
     0
281
     0
  0
CLASS
  1
CELLSTYLEMAP
  2
AcDbCellStyleMap
  3
ObjectDBX Classes
 90
     1152
 91
        2
280
     0
281
     0
  0
ENDSEC
  0
SECTION
  2
TABLES
  0
TABLE
  2
VPORT
  5
8
330
0
100
AcDbSymbolTable
 70
     1
  0
VPORT
  5
29
330
8
100
AcDbSymbolTableRecord
100
AcDbViewportTableRecord
  2
*Active
 70
     0
 10
0.0
 20
0.0
 11
1.0
 21
1.0
 12
127845.9452009552
 22
6568049.548605124
 13
0.0
 23
0.0
 14
10.0
 24
10.0
 15
10.0
 25
10.0
 16
0.0
 26
0.0
 36
1.0
 17
0.0
 27
0.0
 37
0.0
 40
63.2664215019613
 41
2.0
 42
50.0
 43
0.0
 44
0.0
 50
0.0
 51
0.0
 71
     0
 72
   100
 73
     1
 74
     3
 75
     0
 76
     0
 77
     0
 78
     0
281
     0
 65
     1
110
0.0
120
0.0
130
0.0
111
1.0
121
0.0
131
0.0
112
0.0
122
1.0
132
0.0
 79
     0
146
0.0
348
2F
 60
     3
 61
     5
292
     1
282
     1
141
0.0
142
0.0
 63
   250
361
6D
1001
ACAD_NAV_VCDISPLAY
1070
     3
  0
ENDTAB
  0
TABLE
  2
LTYPE
  5
5
330
0
100
AcDbSymbolTable
 70
     2
  0
LTYPE
  5
14
330
5
100
AcDbSymbolTableRecord
100
AcDbLinetypeTableRecord
  2
ByBlock
 70
     0
  3

 72
    65
 73
     0
 40
0.0
  0
LTYPE
  5
15
330
5
100
AcDbSymbolTableRecord
100
AcDbLinetypeTableRecord
  2
ByLayer
 70
     0
  3

 72
    65
 73
     0
 40
0.0
  0
LTYPE
  5
16
330
5
100
AcDbSymbolTableRecord
100
AcDbLinetypeTableRecord
  2
Continuous
 70
     0
  3
Solid line
 72
    65
 73
     0
 40
0.0
  0
LTYPE
  5
15D
330
5
100
AcDbSymbolTableRecord
100
AcDbLinetypeTableRecord
  2
USEDEFINED
 70
     0
  3

 72
    65
 73
     0
 40
0.0
  0
ENDTAB
  0
TABLE
  2
LAYER
  5
2
102
{ACAD_XDICTIONARY
360
2FA
102
}
330
0
100
AcDbSymbolTable
 70
     6
  0
LAYER
  5
10
330
2
100
AcDbSymbolTableRecord
100
AcDbLayerTableRecord
  2
0
 70
     0
 62
     7
  6
Continuous
370
    -3
390
F
347
46
348
0
  0
LAYER
  5
6E
330
2
100
AcDbSymbolTableRecord
100
AcDbLayerTableRecord
  2
Gränspunkt
 70
     0
 62
     1
  6
Continuous
370
    -3
390
F
347
46
348
0
1001
AcAecLayerStandard
1000

1000

  0
LAYER
  5
15B
330
2
100
AcDbSymbolTableRecord
100
AcDbLayerTableRecord
  2
Fastighetsgräns
 70
     0
 62
   200
420
 12517631
  6
Continuous
370
    -3
390
F
347
46
348
0
1001
AcAecLayerStandard
1000

1000

  0
LAYER
  5
23D
330
2
100
AcDbSymbolTableRecord
100
AcDbLayerTableRecord
  2
Fordonsväg
 70
     0
 62
     7
  6
Continuous
370
    -3
390
F
347
46
348
0
1001
AcAecLayerStandard
1000

1000

  0
LAYER
  5
266
330
2
100
AcDbSymbolTableRecord
100
AcDbLayerTableRecord
  2
Byggnadskartografilinje
 70
     0
 62
   254
420
 14079702
  6
Continuous
370
    -3
390
F
347
46
348
0
1001
AcAecLayerStandard
1000

1000

  0
LAYER
  5
28F
330
2
100
AcDbSymbolTableRecord
100
AcDbLayerTableRecord
  2
Bostad
 70
     0
 62
    43
420
 13415014
  6
Continuous
370
    -3
390
F
347
46
348
0
1001
AcAecLayerStandard
1000

1000

  0
ENDTAB
  0
TABLE
  2
STYLE
  5
3
330
0
100
AcDbSymbolTable
 70
     2
  0
STYLE
  5
11
330
3
100
AcDbSymbolTableRecord
100
AcDbTextStyleTableRecord
  2
Standard
 70
     0
 40
0.0
 41
1.0
 50
0.0
 71
     0
 42
2.5
  3
txt
  4

  0
STYLE
  5
2E2
330
3
100
AcDbSymbolTableRecord
100
AcDbTextStyleTableRecord
  2
Legend
 70
     0
 40
0.0
 41
1.0
 50
0.0
 71
     0
 42
2.5
  3
calibri.ttf
  4

1001
ACAD
1000
Calibri
1071
      256
  0
ENDTAB
  0
TABLE
  2
VIEW
  5
6
330
0
100
AcDbSymbolTable
 70
     1
  0
ENDTAB
  0
TABLE
  2
UCS
  5
7
330
0
100
AcDbSymbolTable
 70
     0
  0
ENDTAB
  0
TABLE
  2
APPID
  5
9
330
0
100
AcDbSymbolTable
 70
     7
  0
APPID
  5
12
330
9
100
AcDbSymbolTableRecord
100
AcDbRegAppTableRecord
  2
ACAD
 70
     0
  0
APPID
  5
6F
330
9
100
AcDbSymbolTableRecord
100
AcDbRegAppTableRecord
  2
AcAecLayerStandard
 70
     0
  0
APPID
  5
2E6
330
9
100
AcDbSymbolTableRecord
100
AcDbRegAppTableRecord
  2
AcMapDMDisplayStyleRegapp
 70
     0
  0
APPID
  5
2ED
330
9
100
AcDbSymbolTableRecord
100
AcDbRegAppTableRecord
  2
ACAD_NAV_VCDISPLAY
 70
     0
  0
APPID
  5
2EF
330
9
100
AcDbSymbolTableRecord
100
AcDbRegAppTableRecord
  2
ADE
 70
     0
  0
APPID
  5
2F4
330
9
100
AcDbSymbolTableRecord
100
AcDbRegAppTableRecord
  2
DCO15
 70
     0
  0
APPID
  5
2F6
330
9
100
AcDbSymbolTableRecord
100
AcDbRegAppTableRecord
  2
MapGWS
 70
     0
  0
ENDTAB
  0
TABLE
  2
DIMSTYLE
  5
A
330
0
100
AcDbSymbolTable
 70
     1
100
AcDbDimStyleTable
 71
     0
  0
DIMSTYLE
105
27
330
A
100
AcDbSymbolTableRecord
100
AcDbDimStyleTableRecord
  2
ISO-25
 70
     0
 41
2.5
 42
0.625
 43
3.75
 44
1.25
 73
     0
 74
     0
 77
     1
 78
     8
140
2.5
141
2.5
143
0.03937007874016
147
0.625
171
     3
172
     1
271
     2
272
     2
274
     3
278
    44
283
     0
284
     8
340
11
  0
ENDTAB
  0
TABLE
  2
BLOCK_RECORD
  5
1
330
0
100
AcDbSymbolTable
 70
    13
  0
BLOCK_RECORD
  5
1F
102
{ACAD_XDICTIONARY
360
2EA
102
}
330
1
100
AcDbSymbolTableRecord
100
AcDbBlockTableRecord
  2
*Model_Space
340
22
 70
     0
280
     1
281
     0
  0
BLOCK_RECORD
  5
1B
330
1
100
AcDbSymbolTableRecord
100
AcDbBlockTableRecord
  2
*Paper_Space
340
1E
 70
     0
280
     1
281
     0
  0
BLOCK_RECORD
  5
23
330
1
100
AcDbSymbolTableRecord
100
AcDbBlockTableRecord
  2
*Paper_Space0
340
26
 70
     0
280
     1
281
     0
  0
BLOCK_RECORD
  5
70
330
1
100
AcDbSymbolTableRecord
100
AcDbBlockTableRecord
  2
GRANSPUNKT
340
0
102
{BLKREFS
331
74
331
95
331
B6
331
D7
331
F8
331
119
331
13A
102
}
 70
     0
280
     1
281
     0
  0
BLOCK_RECORD
  5
15C
330
1
100
AcDbSymbolTableRecord
100
AcDbBlockTableRecord
  2
1
340
0
102
{BLKREFS
331
161
102
}
 70
     0
280
     1
281
     0
  0
BLOCK_RECORD
  5
17D
330
1
100
AcDbSymbolTableRecord
100
AcDbBlockTableRecord
  2
2
340
0
102
{BLKREFS
331
181
102
}
 70
     0
280
     1
281
     0
  0
BLOCK_RECORD
  5
19D
330
1
100
AcDbSymbolTableRecord
100
AcDbBlockTableRecord
  2
4
340
0
102
{BLKREFS
331
1A1
102
}
 70
     0
280
     1
281
     0
  0
BLOCK_RECORD
  5
1BD
330
1
100
AcDbSymbolTableRecord
100
AcDbBlockTableRecord
  2
5
340
0
102
{BLKREFS
331
1C1
102
}
 70
     0
280
     1
281
     0
  0
BLOCK_RECORD
  5
1DD
330
1
100
AcDbSymbolTableRecord
100
AcDbBlockTableRecord
  2
7
340
0
102
{BLKREFS
331
1E1
102
}
 70
     0
280
     1
281
     0
  0
BLOCK_RECORD
  5
1FD
330
1
100
AcDbSymbolTableRecord
100
AcDbBlockTableRecord
  2
9
340
0
102
{BLKREFS
331
201
102
}
 70
     0
280
     1
281
     0
  0
BLOCK_RECORD
  5
21D
330
1
100
AcDbSymbolTableRecord
100
AcDbBlockTableRecord
  2
10
340
0
102
{BLKREFS
331
221
102
}
 70
     0
280
     1
281
     0
  0
BLOCK_RECORD
  5
23E
330
1
100
AcDbSymbolTableRecord
100
AcDbBlockTableRecord
  2
13
340
0
 70
     0
280
     1
281
     0
  0
BLOCK_RECORD
  5
267
330
1
100
AcDbSymbolTableRecord
100
AcDbBlockTableRecord
  2
14
340
0
102
{BLKREFS
331
26E
102
}
 70
     0
280
     1
281
     0
  0
BLOCK_RECORD
  5
27B
330
1
100
AcDbSymbolTableRecord
100
AcDbBlockTableRecord
  2
15
340
0
102
{BLKREFS
331
282
102
}
 70
     0
280
     1
281
     0
  0
BLOCK_RECORD
  5
290
330
1
100
AcDbSymbolTableRecord
100
AcDbBlockTableRecord
  2
16
340
0
102
{BLKREFS
331
2A3
102
}
 70
     0
280
     1
281
     0
  0
ENDTAB
  0
ENDSEC
  0
SECTION
  2
BLOCKS
  0
BLOCK
  5
20
330
1F
100
AcDbEntity
  8
0
100
AcDbBlockBegin
  2
*Model_Space
 70
     0
 10
0.0
 20
0.0
 30
0.0
  3
*Model_Space
  1

  0
ENDBLK
  5
21
330
1F
100
AcDbEntity
  8
0
100
AcDbBlockEnd
  0
BLOCK
  5
1C
330
1B
100
AcDbEntity
 67
     1
  8
0
100
AcDbBlockBegin
  2
*Paper_Space
 70
     0
 10
0.0
 20
0.0
 30
0.0
  3
*Paper_Space
  1

  0
ENDBLK
  5
1D
330
1B
100
AcDbEntity
 67
     1
  8
0
100
AcDbBlockEnd
  0
BLOCK
  5
24
330
23
100
AcDbEntity
 67
     1
  8
0
100
AcDbBlockBegin
  2
*Paper_Space0
 70
     0
 10
0.0
 20
0.0
 30
0.0
  3
*Paper_Space0
  1

  0
ENDBLK
  5
25
330
23
100
AcDbEntity
 67
     1
  8
0
100
AcDbBlockEnd
  0
BLOCK
  5
72
330
70
100
AcDbEntity
  8
0
100
AcDbBlockBegin
  2
GRANSPUNKT
 70
     0
 10
0.0
 20
0.0
 30
0.0
  3
GRANSPUNKT
  1

  0
CIRCLE
  5
71
330
70
100
AcDbEntity
  8
0
100
AcDbCircle
 10
0.0
 20
0.0
 30
0.0
 40
0.5
  0
ENDBLK
  5
73
330
70
100
AcDbEntity
  8
0
100
AcDbBlockEnd
  0
BLOCK
  5
15F
330
15C
100
AcDbEntity
  8
0
100
AcDbBlockBegin
  2
1
 70
     0
 10
0.0
 20
0.0
 30
0.0
  3
1
  1

  0
LWPOLYLINE
  5
15E
330
15C
100
AcDbEntity
  8
0
  6
USEDEFINED
 62
   200
420
 12517631
100
AcDbPolyline
 90
        2
 70
     0
 43
0.0
 10
127862.209236173
 20
6568067.428476569
 10
127827.727
 20
6568057.911000001
  0
ENDBLK
  5
160
330
15C
100
AcDbEntity
  8
0
100
AcDbBlockEnd
  0
BLOCK
  5
17F
330
17D
100
AcDbEntity
  8
0
100
AcDbBlockBegin
  2
2
 70
     0
 10
0.0
 20
0.0
 30
0.0
  3
2
  1

  0
LWPOLYLINE
  5
17E
330
17D
100
AcDbEntity
  8
0
  6
USEDEFINED
 62
   200
420
 12517631
100
AcDbPolyline
 90
        2
 70
     0
 43
0.0
 10
127826.03824704
 20
6568029.38213708
 10
127856.01
 20
6568035.549999999
  0
ENDBLK
  5
180
330
17D
100
AcDbEntity
  8
0
100
AcDbBlockEnd
  0
BLOCK
  5
19F
330
19D
100
AcDbEntity
  8
0
100
AcDbBlockBegin
  2
4
 70
     0
 10
0.0
 20
0.0
 30
0.0
  3
4
  1

  0
LWPOLYLINE
  5
19E
330
19D
100
AcDbEntity
  8
0
  6
USEDEFINED
 62
   200
420
 12517631
100
AcDbPolyline
 90
        2
 70
     0
 43
0.0
 10
127827.727
 20
6568057.911000001
 10
127814.979567726
 20
6568054.39408524
  0
ENDBLK
  5
1A0
330
19D
100
AcDbEntity
  8
0
100
AcDbBlockEnd
  0
BLOCK
  5
1BF
330
1BD
100
AcDbEntity
  8
0
100
AcDbBlockBegin
  2
5
 70
     0
 10
0.0
 20
0.0
 30
0.0
  3
5
  1

  0
LWPOLYLINE
  5
1BE
330
1BD
100
AcDbEntity
  8
0
  6
USEDEFINED
 62
   200
420
 12517631
100
AcDbPolyline
 90
        2
 70
     0
 43
0.0
 10
127821.54
 20
6568030.863
 10
127826.03824704
 20
6568029.38213708
  0
ENDBLK
  5
1C0
330
1BD
100
AcDbEntity
  8
0
100
AcDbBlockEnd
  0
BLOCK
  5
1DF
330
1DD
100
AcDbEntity
  8
0
100
AcDbBlockBegin
  2
7
 70
     0
 10
0.0
 20
0.0
 30
0.0
  3
7
  1

  0
LWPOLYLINE
  5
1DE
330
1DD
100
AcDbEntity
  8
0
  6
USEDEFINED
 62
   200
420
 12517631
100
AcDbPolyline
 90
        2
 70
     0
 43
0.0
 10
127856.01
 20
6568035.549999999
 10
127860.148362482
 20
6568040.34590707
  0
ENDBLK
  5
1E0
330
1DD
100
AcDbEntity
  8
0
100
AcDbBlockEnd
  0
BLOCK
  5
1FF
330
1FD
100
AcDbEntity
  8
0
100
AcDbBlockBegin
  2
9
 70
     0
 10
0.0
 20
0.0
 30
0.0
  3
9
  1

  0
LWPOLYLINE
  5
1FE
330
1FD
100
AcDbEntity
  8
0
  6
USEDEFINED
 62
   200
420
 12517631
100
AcDbPolyline
 90
        2
 70
     0
 43
0.0
 10
127862.209236173
 20
6568067.428476569
 10
127860.148362482
 20
6568040.34590707
  0
ENDBLK
  5
200
330
1FD
100
AcDbEntity
  8
0
100
AcDbBlockEnd
  0
BLOCK
  5
21F
330
21D
100
AcDbEntity
  8
0
100
AcDbBlockBegin
  2
10
 70
     0
 10
0.0
 20
0.0
 30
0.0
  3
10
  1

  0
LWPOLYLINE
  5
21E
330
21D
100
AcDbEntity
  8
0
  6
USEDEFINED
 62
   200
420
 12517631
100
AcDbPolyline
 90
        2
 70
     0
 43
0.0
 10
127814.979567726
 20
6568054.39408524
 10
127821.54
 20
6568030.863
  0
ENDBLK
  5
220
330
21D
100
AcDbEntity
  8
0
100
AcDbBlockEnd
  0
BLOCK
  5
240
330
23E
100
AcDbEntity
  8
0
100
AcDbBlockBegin
  2
13
 70
     0
 10
0.0
 20
0.0
 30
0.0
  3
13
  1

  0
LWPOLYLINE
  5
23F
330
23E
100
AcDbEntity
  8
0
  6
USEDEFINED
 62
     0
100
AcDbPolyline
 90
        2
 70
     0
 43
0.0
 10
127860.352
 20
6568037.644999999
 10
127860.361668053
 20
6568037.64531066
  0
ENDBLK
  5
241
330
23E
100
AcDbEntity
  8
0
100
AcDbBlockEnd
  0
BLOCK
  5
26C
330
267
100
AcDbEntity
  8
0
100
AcDbBlockBegin
  2
14
 70
     0
 10
0.0
 20
0.0
 30
0.0
  3
14
  1

  0
POLYLINE
  5
268
330
267
100
AcDbEntity
  8
0
  6
Continuous
 62
   254
420
 14079702
100
AcDb3dPolyline
 66
     1
 10
0.0
 20
0.0
 30
0.0
 70
     8
  0
VERTEX
  5
269
330
268
100
AcDbEntity
  8
0
100
AcDbVertex
100
AcDb3dPolylineVertex
 10
127843.859
 20
6568057.652
 30
19.399
 70
    32
  0
VERTEX
  5
26A
330
268
100
AcDbEntity
  8
0
100
AcDbVertex
100
AcDb3dPolylineVertex
 10
127839.065
 20
6568036.389999999
 30
20.068
 70
    32
  0
SEQEND
  5
26B
330
268
100
AcDbEntity
  8
0
  6
Continuous
 62
   254
420
 14079702
  0
ENDBLK
  5
26D
330
267
100
AcDbEntity
  8
0
100
AcDbBlockEnd
  0
BLOCK
  5
280
330
27B
100
AcDbEntity
  8
0
100
AcDbBlockBegin
  2
15
 70
     0
 10
0.0
 20
0.0
 30
0.0
  3
15
  1

  0
POLYLINE
  5
27C
330
27B
100
AcDbEntity
  8
0
  6
Continuous
 62
   254
420
 14079702
100
AcDb3dPolyline
 66
     1
 10
0.0
 20
0.0
 30
0.0
 70
     8
  0
VERTEX
  5
27D
330
27C
100
AcDbEntity
  8
0
100
AcDbVertex
100
AcDb3dPolylineVertex
 10
127848.947
 20
6568039.11
 30
19.418
 70
    32
  0
VERTEX
  5
27E
330
27C
100
AcDbEntity
  8
0
100
AcDbVertex
100
AcDb3dPolylineVertex
 10
127833.935
 20
6568054.963
 30
19.896
 70
    32
  0
SEQEND
  5
27F
330
27C
100
AcDbEntity
  8
0
  6
Continuous
 62
   254
420
 14079702
  0
ENDBLK
  5
281
330
27B
100
AcDbEntity
  8
0
100
AcDbBlockEnd
  0
BLOCK
  5
2A1
330
290
100
AcDbEntity
  8
0
100
AcDbBlockBegin
  2
16
 70
     0
 10
0.0
 20
0.0
 30
0.0
  3
16
  1

  0
POLYLINE
  5
291
330
290
100
AcDbEntity
  8
0
  6
Continuous
 62
    43
420
 13415014
100
AcDb3dPolyline
 66
     1
 10
0.0
 20
0.0
 30
0.0
 70
     9
  0
VERTEX
  5
292
330
291
100
AcDbEntity
  8
0
100
AcDbVertex
100
AcDb3dPolylineVertex
 10
127839.065
 20
6568036.389999999
 30
20.068
 70
    32
  0
VERTEX
  5
293
330
291
100
AcDbEntity
  8
0
100
AcDbVertex
100
AcDb3dPolylineVertex
 10
127848.947
 20
6568039.11
 30
19.418
 70
    32
  0
VERTEX
  5
294
330
291
100
AcDbEntity
  8
0
100
AcDbVertex
100
AcDb3dPolylineVertex
 10
127847.176
 20
6568045.536
 30
19.418
 70
    32
  0
VERTEX
  5
295
330
291
100
AcDbEntity
  8
0
100
AcDbVertex
100
AcDb3dPolylineVertex
 10
127846.6109322365
 20
6568045.3783215
 30
19.418
 70
    32
  0
VERTEX
  5
296
330
291
100
AcDbEntity
  8
0
100
AcDbVertex
100
AcDb3dPolylineVertex
 10
127845.5798369362
 20
6568049.073427119
 30
19.408
 70
    32
  0
VERTEX
  5
297
330
291
100
AcDbEntity
  8
0
100
AcDbVertex
100
AcDb3dPolylineVertex
 10
127845.0199046996
 20
6568048.92610562
 30
19.407
 70
    32
  0
VERTEX
  5
298
330
291
100
AcDbEntity
  8
0
100
AcDbVertex
100
AcDb3dPolylineVertex
 10
127844.475
 20
6568050.935999999
 30
19.407
 70
    32
  0
VERTEX
  5
299
330
291
100
AcDbEntity
  8
0
100
AcDbVertex
100
AcDb3dPolylineVertex
 10
127845.6
 20
6568051.241
 30
19.408
 70
    32
  0
VERTEX
  5
29A
330
291
100
AcDbEntity
  8
0
100
AcDbVertex
100
AcDb3dPolylineVertex
 10
127843.859
 20
6568057.652
 30
19.399
 70
    32
  0
VERTEX
  5
29B
330
291
100
AcDbEntity
  8
0
100
AcDbVertex
100
AcDb3dPolylineVertex
 10
127833.935
 20
6568054.963
 30
19.896
 70
    32
  0
VERTEX
  5
29C
330
291
100
AcDbEntity
  8
0
100
AcDbVertex
100
AcDb3dPolylineVertex
 10
127835.701
 20
6568048.542999999
 30
20.839
 70
    32
  0
VERTEX
  5
29D
330
291
100
AcDbEntity
  8
0
100
AcDbVertex
100
AcDb3dPolylineVertex
 10
127838.0177214916
 20
6568049.171088938
 30
-20.87047393818871
 70
    32
  0
VERTEX
  5
29E
330
291
100
AcDbEntity
  8
0
100
AcDbVertex
100
AcDb3dPolylineVertex
 10
127839.6597972547
 20
6568043.501092057
 30
15.70400837130742
 70
    32
  0
VERTEX
  5
29F
330
291
100
AcDbEntity
  8
0
100
AcDbVertex
100
AcDb3dPolylineVertex
 10
127837.348
 20
6568042.855999999
 30
20.939
 70
    32
  0
SEQEND
  5
2A0
330
291
100
AcDbEntity
  8
0
  6
Continuous
 62
    43
420
 13415014
  0
ENDBLK
  5
2A2
330
290
100
AcDbEntity
  8
0
100
AcDbBlockEnd
  0
ENDSEC
  0
SECTION
  2
ENTITIES
  0
INSERT
  5
74
330
1F
100
AcDbEntity
  8
Gränspunkt
100
AcDbBlockReference
 66
     1
  2
GRANSPUNKT
 10
127814.979567726
 20
6568054.39408524
 30
0.0
 41
0.8000000119209289
 42
0.8000000119209289
  0
ATTRIB
  5
75
330
74
100
AcDbEntity
  8
0
100
AcDbText
 10
127814.979567726
 20
6568054.39408524
 30
0.0
 40
1.0
  1
79167
100
AcDbAttribute
280
     0
  2
databas_id
 70
     1
280
     0
  0
ATTRIB
  5
76
330
74
100
AcDbEntity
  8
0
100
AcDbText
 10
127814.979567726
 20
6568054.39408524
 30
0.0
 40
1.0
  1
181321
100
AcDbAttribute
280
     0
  2
granspunktsbeteckning
 70
     1
280
     0
  0
ATTRIB
  5
77
330
74
100
AcDbEntity
  8
0
100
AcDbText
 10
127814.979567726
 20
6568054.39408524
 30
0.0
 40
1.0
  1

100
AcDbAttribute
280
     0
  2
granspunktsbeteckning_gammal
 70
     1
280
     0
  0
ATTRIB
  5
78
330
74
100
AcDbEntity
  8
0
100
AcDbText
 10
127814.979567726
 20
6568054.39408524
 30
0.0
 40
1.0
  1

100
AcDbAttribute
280
     0
  2
granspunktsbeteckning_lm
 70
     1
280
     0
  0
ATTRIB
  5
79
330
74
100
AcDbEntity
  8
0
100
AcDbText
 10
127814.979567726
 20
6568054.39408524
 30
0.0
 40
1.0
  1
1141835
100
AcDbAttribute
280
     0
  2
markeringstyp
 70
     1
280
     0
  0
ATTRIB
  5
7A
330
74
100
AcDbEntity
  8
0
100
AcDbText
 10
127814.979567726
 20
6568054.39408524
 30
0.0
 40
1.0
  1
99
100
AcDbAttribute
280
     0
  2
utredd
 70
     1
280
     0
  0
ATTRIB
  5
7B
330
74
100
AcDbEntity
  8
0
100
AcDbText
 10
127814.979567726
 20
6568054.39408524
 30
0.0
 40
1.0
  1
99
100
AcDbAttribute
280
     0
  2
atgard
 70
     1
280
     0
  0
ATTRIB
  5
7C
330
74
100
AcDbEntity
  8
0
100
AcDbText
 10
127814.979567726
 20
6568054.39408524
 30
0.0
 40
1.0
  1

100
AcDbAttribute
280
     0
  2
kommentar
 70
     1
280
     0
  0
ATTRIB
  5
7D
330
74
100
AcDbEntity
  8
0
100
AcDbText
 10
127814.979567726
 20
6568054.39408524
 30
0.0
 40
1.0
  1
100
100
AcDbAttribute
280
     0
  2
lagesosakerhet_plan
 70
     1
280
     0
  0
ATTRIB
  5
7E
330
74
100
AcDbEntity
  8
0
100
AcDbText
 10
127814.979567726
 20
6568054.39408524
 30
0.0
 40
1.0
  1
10000
100
AcDbAttribute
280
     0
  2
lagesosakerhet_hojd
 70
     1
280
     0
  0
ATTRIB
  5
7F
330
74
100
AcDbEntity
  8
0
100
AcDbText
 10
127814.979567726
 20
6568054.39408524
 30
0.0
 40
1.0
  1

100
AcDbAttribute
280
     0
  2
organisation_plan
 70
     1
280
     0
  0
ATTRIB
  5
80
330
74
100
AcDbEntity
  8
0
100
AcDbText
 10
127814.979567726
 20
6568054.39408524
 30
0.0
 40
1.0
  1

100
AcDbAttribute
280
     0
  2
organisation_hojd
 70
     1
280
     0
  0
ATTRIB
  5
81
330
74
100
AcDbEntity
  8
0
100
AcDbText
 10
127814.979567726
 20
6568054.39408524
 30
0.0
 40
1.0
  1
811
100
AcDbAttribute
280
     0
  2
insamlingsmetod_plan
 70
     1
280
     0
  0
ATTRIB
  5
82
330
74
100
AcDbEntity
  8
0
100
AcDbText
 10
127814.979567726
 20
6568054.39408524
 30
0.0
 40
1.0
  1
99
100
AcDbAttribute
280
     0
  2
insamlingsmetod_hojd
 70
     1
280
     0
  0
ATTRIB
  5
83
330
74
100
AcDbEntity
  8
0
100
AcDbText
 10
127814.979567726
 20
6568054.39408524
 30
0.0
 40
1.0
  1
0181
100
AcDbAttribute
280
     0
  2
kommunkod
 70
     1
280
     0
  0
ATTRIB
  5
84
330
74
100
AcDbEntity
  8
0
100
AcDbText
 10
127814.979567726
 20
6568054.39408524
 30
0.0
 40
1.0
  1
2016-07-12 16:19:43
100
AcDbAttribute
280
     0
  2
skapad_tid
 70
     1
280
     0
  0
ATTRIB
  5
85
330
74
100
AcDbEntity
  8
0
100
AcDbText
 10
127814.979567726
 20
6568054.39408524
 30
0.0
 40
1.0
  1
AHALL
100
AcDbAttribute
280
     0
  2
skapad_av
 70
     1
280
     0
  0
ATTRIB
  5
86
330
74
100
AcDbEntity
  8
0
100
AcDbText
 10
127814.979567726
 20
6568054.39408524
 30
0.0
 40
1.0
  1
2016-08-25 13:07:08
100
AcDbAttribute
280
     0
  2
andrad_tid
 70
     1
280
     0
  0
ATTRIB
  5
87
330
74
100
AcDbEntity
  8
0
100
AcDbText
 10
127814.979567726
 20
6568054.39408524
 30
0.0
 40
1.0
  1
ILAVETT
100
AcDbAttribute
280
     0
  2
andrad_av
 70
     1
280
     0
  0
ATTRIB
  5
88
330
74
100
AcDbEntity
  8
0
100
AcDbText
 10
127814.979567726
 20
6568054.39408524
 30
0.0
 40
1.0
  1
20178287;DPCAD.SYMG;550103;0;110015;1
100
AcDbAttribute
280
     0
  2
id_gammalt
 70
     1
280
     0
  0
ATTRIB
  5
89
330
74
100
AcDbEntity
  8
0
100
AcDbText
 10
127814.979567726
 20
6568054.39408524
 30
0.0
 40
1.0
  1

100
AcDbAttribute
280
     0
  2
konvert_id
 70
     1
280
     0
  0
ATTRIB
  5
8A
330
74
100
AcDbEntity
  8
0
100
AcDbText
 10
127814.979567726
 20
6568054.39408524
 30
0.0
 40
1.0
  1

100
AcDbAttribute
280
     0
  2
cad_maner
 70
     1
280
     0
  0
ATTRIB
  5
8B
330
74
100
AcDbEntity
  8
0
100
AcDbText
 10
127814.979567726
 20
6568054.39408524
 30
0.0
 40
1.0
  1

100
AcDbAttribute
280
     0
  2
MI_STYLE
 70
     1
280
     0
  0
ATTRIB
  5
8C
330
74
100
AcDbEntity
  8
0
100
AcDbText
 10
127814.979567726
 20
6568054.39408524
 30
0.0
 40
1.0
  1
{61959BEC-56BC-481B-B623-AE46310C8784}
100
AcDbAttribute
280
     0
  2
lokalid
 70
     1
280
     0
  0
ATTRIB
  5
8D
330
74
100
AcDbEntity
  8
0
100
AcDbText
 10
127814.979567726
 20
6568054.39408524
 30
0.0
 40
1.0
  1
Odefinierad
100
AcDbAttribute
280
     0
  2
atgard_Text
 70
     1
280
     0
  0
ATTRIB
  5
8E
330
74
100
AcDbEntity
  8
0
100
AcDbText
 10
127814.979567726
 20
6568054.39408524
 30
0.0
 40
1.0
  1
Odefinierad
100
AcDbAttribute
280
     0
  2
insamlingsmetod_hojd_Text
 70
     1
280
     0
  0
ATTRIB
  5
8F
330
74
100
AcDbEntity
  8
0
100
AcDbText
 10
127814.979567726
 20
6568054.39408524
 30
0.0
 40
1.0
  1
Geodetiskt - GNSS nätverks-RTK
100
AcDbAttribute
280
     0
  2
insamlingsmetod_plan_Text
 70
     1
280
     0
  0
ATTRIB
  5
90
330
74
100
AcDbEntity
  8
0
100
AcDbText
 10
127814.979567726
 20
6568054.39408524
 30
0.0
 40
1.0
  1
10000 mm
100
AcDbAttribute
280
     0
  2
lagesosakerhet_hojd_Text
 70
     1
280
     0
  0
ATTRIB
  5
91
330
74
100
AcDbEntity
  8
0
100
AcDbText
 10
127814.979567726
 20
6568054.39408524
 30
0.0
 40
1.0
  1
   100 mm
100
AcDbAttribute
280
     0
  2
lagesosakerhet_plan_Text
 70
     1
280
     0
  0
ATTRIB
  5
92
330
74
100
AcDbEntity
  8
0
100
AcDbText
 10
127814.979567726
 20
6568054.39408524
 30
0.0
 40
1.0
  1
Rör i mark
100
AcDbAttribute
280
     0
  2
markeringstyp_Text
 70
     1
280
     0
  0
ATTRIB
  5
93
330
74
100
AcDbEntity
  8
0
100
AcDbText
 10
127814.979567726
 20
6568054.39408524
 30
0.0
 40
1.0
  1
Odefinierad
100
AcDbAttribute
280
     0
  2
utredd_Text
 70
     1
280
     0
  0
SEQEND
  5
94
330
74
100
AcDbEntity
  8
Gränspunkt
  0
INSERT
  5
95
330
1F
100
AcDbEntity
  8
Gränspunkt
100
AcDbBlockReference
 66
     1
  2
GRANSPUNKT
 10
127860.148362482
 20
6568040.34590707
 30
0.0
 41
0.8000000119209289
 42
0.8000000119209289
  0
ATTRIB
  5
96
330
95
100
AcDbEntity
  8
0
100
AcDbText
 10
127860.148362482
 20
6568040.34590707
 30
0.0
 40
1.0
  1
79170
100
AcDbAttribute
280
     0
  2
databas_id
 70
     1
280
     0
  0
ATTRIB
  5
97
330
95
100
AcDbEntity
  8
0
100
AcDbText
 10
127860.148362482
 20
6568040.34590707
 30
0.0
 40
1.0
  1
181325
100
AcDbAttribute
280
     0
  2
granspunktsbeteckning
 70
     1
280
     0
  0
ATTRIB
  5
98
330
95
100
AcDbEntity
  8
0
100
AcDbText
 10
127860.148362482
 20
6568040.34590707
 30
0.0
 40
1.0
  1

100
AcDbAttribute
280
     0
  2
granspunktsbeteckning_gammal
 70
     1
280
     0
  0
ATTRIB
  5
99
330
95
100
AcDbEntity
  8
0
100
AcDbText
 10
127860.148362482
 20
6568040.34590707
 30
0.0
 40
1.0
  1

100
AcDbAttribute
280
     0
  2
granspunktsbeteckning_lm
 70
     1
280
     0
  0
ATTRIB
  5
9A
330
95
100
AcDbEntity
  8
0
100
AcDbText
 10
127860.148362482
 20
6568040.34590707
 30
0.0
 40
1.0
  1
1141835
100
AcDbAttribute
280
     0
  2
markeringstyp
 70
     1
280
     0
  0
ATTRIB
  5
9B
330
95
100
AcDbEntity
  8
0
100
AcDbText
 10
127860.148362482
 20
6568040.34590707
 30
0.0
 40
1.0
  1
99
100
AcDbAttribute
280
     0
  2
utredd
 70
     1
280
     0
  0
ATTRIB
  5
9C
330
95
100
AcDbEntity
  8
0
100
AcDbText
 10
127860.148362482
 20
6568040.34590707
 30
0.0
 40
1.0
  1
99
100
AcDbAttribute
280
     0
  2
atgard
 70
     1
280
     0
  0
ATTRIB
  5
9D
330
95
100
AcDbEntity
  8
0
100
AcDbText
 10
127860.148362482
 20
6568040.34590707
 30
0.0
 40
1.0
  1

100
AcDbAttribute
280
     0
  2
kommentar
 70
     1
280
     0
  0
ATTRIB
  5
9E
330
95
100
AcDbEntity
  8
0
100
AcDbText
 10
127860.148362482
 20
6568040.34590707
 30
0.0
 40
1.0
  1
35
100
AcDbAttribute
280
     0
  2
lagesosakerhet_plan
 70
     1
280
     0
  0
ATTRIB
  5
9F
330
95
100
AcDbEntity
  8
0
100
AcDbText
 10
127860.148362482
 20
6568040.34590707
 30
0.0
 40
1.0
  1
10000
100
AcDbAttribute
280
     0
  2
lagesosakerhet_hojd
 70
     1
280
     0
  0
ATTRIB
  5
A0
330
95
100
AcDbEntity
  8
0
100
AcDbText
 10
127860.148362482
 20
6568040.34590707
 30
0.0
 40
1.0
  1

100
AcDbAttribute
280
     0
  2
organisation_plan
 70
     1
280
     0
  0
ATTRIB
  5
A1
330
95
100
AcDbEntity
  8
0
100
AcDbText
 10
127860.148362482
 20
6568040.34590707
 30
0.0
 40
1.0
  1

100
AcDbAttribute
280
     0
  2
organisation_hojd
 70
     1
280
     0
  0
ATTRIB
  5
A2
330
95
100
AcDbEntity
  8
0
100
AcDbText
 10
127860.148362482
 20
6568040.34590707
 30
0.0
 40
1.0
  1
811
100
AcDbAttribute
280
     0
  2
insamlingsmetod_plan
 70
     1
280
     0
  0
ATTRIB
  5
A3
330
95
100
AcDbEntity
  8
0
100
AcDbText
 10
127860.148362482
 20
6568040.34590707
 30
0.0
 40
1.0
  1
99
100
AcDbAttribute
280
     0
  2
insamlingsmetod_hojd
 70
     1
280
     0
  0
ATTRIB
  5
A4
330
95
100
AcDbEntity
  8
0
100
AcDbText
 10
127860.148362482
 20
6568040.34590707
 30
0.0
 40
1.0
  1
0181
100
AcDbAttribute
280
     0
  2
kommunkod
 70
     1
280
     0
  0
ATTRIB
  5
A5
330
95
100
AcDbEntity
  8
0
100
AcDbText
 10
127860.148362482
 20
6568040.34590707
 30
0.0
 40
1.0
  1
2016-07-12 16:19:43
100
AcDbAttribute
280
     0
  2
skapad_tid
 70
     1
280
     0
  0
ATTRIB
  5
A6
330
95
100
AcDbEntity
  8
0
100
AcDbText
 10
127860.148362482
 20
6568040.34590707
 30
0.0
 40
1.0
  1
AHALL
100
AcDbAttribute
280
     0
  2
skapad_av
 70
     1
280
     0
  0
ATTRIB
  5
A7
330
95
100
AcDbEntity
  8
0
100
AcDbText
 10
127860.148362482
 20
6568040.34590707
 30
0.0
 40
1.0
  1
2016-08-25 13:07:08
100
AcDbAttribute
280
     0
  2
andrad_tid
 70
     1
280
     0
  0
ATTRIB
  5
A8
330
95
100
AcDbEntity
  8
0
100
AcDbText
 10
127860.148362482
 20
6568040.34590707
 30
0.0
 40
1.0
  1
ILAVETT
100
AcDbAttribute
280
     0
  2
andrad_av
 70
     1
280
     0
  0
ATTRIB
  5
A9
330
95
100
AcDbEntity
  8
0
100
AcDbText
 10
127860.148362482
 20
6568040.34590707
 30
0.0
 40
1.0
  1
20178291;DPCAD.SYMG;550103;0;110015;1
100
AcDbAttribute
280
     0
  2
id_gammalt
 70
     1
280
     0
  0
ATTRIB
  5
AA
330
95
100
AcDbEntity
  8
0
100
AcDbText
 10
127860.148362482
 20
6568040.34590707
 30
0.0
 40
1.0
  1

100
AcDbAttribute
280
     0
  2
konvert_id
 70
     1
280
     0
  0
ATTRIB
  5
AB
330
95
100
AcDbEntity
  8
0
100
AcDbText
 10
127860.148362482
 20
6568040.34590707
 30
0.0
 40
1.0
  1

100
AcDbAttribute
280
     0
  2
cad_maner
 70
     1
280
     0
  0
ATTRIB
  5
AC
330
95
100
AcDbEntity
  8
0
100
AcDbText
 10
127860.148362482
 20
6568040.34590707
 30
0.0
 40
1.0
  1

100
AcDbAttribute
280
     0
  2
MI_STYLE
 70
     1
280
     0
  0
ATTRIB
  5
AD
330
95
100
AcDbEntity
  8
0
100
AcDbText
 10
127860.148362482
 20
6568040.34590707
 30
0.0
 40
1.0
  1
{E7EF86D1-49E8-463E-A442-EF9FFDA3AAC2}
100
AcDbAttribute
280
     0
  2
lokalid
 70
     1
280
     0
  0
ATTRIB
  5
AE
330
95
100
AcDbEntity
  8
0
100
AcDbText
 10
127860.148362482
 20
6568040.34590707
 30
0.0
 40
1.0
  1
Odefinierad
100
AcDbAttribute
280
     0
  2
atgard_Text
 70
     1
280
     0
  0
ATTRIB
  5
AF
330
95
100
AcDbEntity
  8
0
100
AcDbText
 10
127860.148362482
 20
6568040.34590707
 30
0.0
 40
1.0
  1
Odefinierad
100
AcDbAttribute
280
     0
  2
insamlingsmetod_hojd_Text
 70
     1
280
     0
  0
ATTRIB
  5
B0
330
95
100
AcDbEntity
  8
0
100
AcDbText
 10
127860.148362482
 20
6568040.34590707
 30
0.0
 40
1.0
  1
Geodetiskt - GNSS nätverks-RTK
100
AcDbAttribute
280
     0
  2
insamlingsmetod_plan_Text
 70
     1
280
     0
  0
ATTRIB
  5
B1
330
95
100
AcDbEntity
  8
0
100
AcDbText
 10
127860.148362482
 20
6568040.34590707
 30
0.0
 40
1.0
  1
10000 mm
100
AcDbAttribute
280
     0
  2
lagesosakerhet_hojd_Text
 70
     1
280
     0
  0
ATTRIB
  5
B2
330
95
100
AcDbEntity
  8
0
100
AcDbText
 10
127860.148362482
 20
6568040.34590707
 30
0.0
 40
1.0
  1
     35 mm
100
AcDbAttribute
280
     0
  2
lagesosakerhet_plan_Text
 70
     1
280
     0
  0
ATTRIB
  5
B3
330
95
100
AcDbEntity
  8
0
100
AcDbText
 10
127860.148362482
 20
6568040.34590707
 30
0.0
 40
1.0
  1
Rör i mark
100
AcDbAttribute
280
     0
  2
markeringstyp_Text
 70
     1
280
     0
  0
ATTRIB
  5
B4
330
95
100
AcDbEntity
  8
0
100
AcDbText
 10
127860.148362482
 20
6568040.34590707
 30
0.0
 40
1.0
  1
Odefinierad
100
AcDbAttribute
280
     0
  2
utredd_Text
 70
     1
280
     0
  0
SEQEND
  5
B5
330
95
100
AcDbEntity
  8
Gränspunkt
  0
INSERT
  5
B6
330
1F
100
AcDbEntity
  8
Gränspunkt
100
AcDbBlockReference
 66
     1
  2
GRANSPUNKT
 10
127826.03824704
 20
6568029.38213708
 30
0.0
 41
0.8000000119209289
 42
0.8000000119209289
  0
ATTRIB
  5
B7
330
B6
100
AcDbEntity
  8
0
100
AcDbText
 10
127826.03824704
 20
6568029.38213708
 30
0.0
 40
1.0
  1
79168
100
AcDbAttribute
280
     0
  2
databas_id
 70
     1
280
     0
  0
ATTRIB
  5
B8
330
B6
100
AcDbEntity
  8
0
100
AcDbText
 10
127826.03824704
 20
6568029.38213708
 30
0.0
 40
1.0
  1
181323
100
AcDbAttribute
280
     0
  2
granspunktsbeteckning
 70
     1
280
     0
  0
ATTRIB
  5
B9
330
B6
100
AcDbEntity
  8
0
100
AcDbText
 10
127826.03824704
 20
6568029.38213708
 30
0.0
 40
1.0
  1

100
AcDbAttribute
280
     0
  2
granspunktsbeteckning_gammal
 70
     1
280
     0
  0
ATTRIB
  5
BA
330
B6
100
AcDbEntity
  8
0
100
AcDbText
 10
127826.03824704
 20
6568029.38213708
 30
0.0
 40
1.0
  1

100
AcDbAttribute
280
     0
  2
granspunktsbeteckning_lm
 70
     1
280
     0
  0
ATTRIB
  5
BB
330
B6
100
AcDbEntity
  8
0
100
AcDbText
 10
127826.03824704
 20
6568029.38213708
 30
0.0
 40
1.0
  1
1141835
100
AcDbAttribute
280
     0
  2
markeringstyp
 70
     1
280
     0
  0
ATTRIB
  5
BC
330
B6
100
AcDbEntity
  8
0
100
AcDbText
 10
127826.03824704
 20
6568029.38213708
 30
0.0
 40
1.0
  1
99
100
AcDbAttribute
280
     0
  2
utredd
 70
     1
280
     0
  0
ATTRIB
  5
BD
330
B6
100
AcDbEntity
  8
0
100
AcDbText
 10
127826.03824704
 20
6568029.38213708
 30
0.0
 40
1.0
  1
99
100
AcDbAttribute
280
     0
  2
atgard
 70
     1
280
     0
  0
ATTRIB
  5
BE
330
B6
100
AcDbEntity
  8
0
100
AcDbText
 10
127826.03824704
 20
6568029.38213708
 30
0.0
 40
1.0
  1

100
AcDbAttribute
280
     0
  2
kommentar
 70
     1
280
     0
  0
ATTRIB
  5
BF
330
B6
100
AcDbEntity
  8
0
100
AcDbText
 10
127826.03824704
 20
6568029.38213708
 30
0.0
 40
1.0
  1
35
100
AcDbAttribute
280
     0
  2
lagesosakerhet_plan
 70
     1
280
     0
  0
ATTRIB
  5
C0
330
B6
100
AcDbEntity
  8
0
100
AcDbText
 10
127826.03824704
 20
6568029.38213708
 30
0.0
 40
1.0
  1
10000
100
AcDbAttribute
280
     0
  2
lagesosakerhet_hojd
 70
     1
280
     0
  0
ATTRIB
  5
C1
330
B6
100
AcDbEntity
  8
0
100
AcDbText
 10
127826.03824704
 20
6568029.38213708
 30
0.0
 40
1.0
  1

100
AcDbAttribute
280
     0
  2
organisation_plan
 70
     1
280
     0
  0
ATTRIB
  5
C2
330
B6
100
AcDbEntity
  8
0
100
AcDbText
 10
127826.03824704
 20
6568029.38213708
 30
0.0
 40
1.0
  1

100
AcDbAttribute
280
     0
  2
organisation_hojd
 70
     1
280
     0
  0
ATTRIB
  5
C3
330
B6
100
AcDbEntity
  8
0
100
AcDbText
 10
127826.03824704
 20
6568029.38213708
 30
0.0
 40
1.0
  1
811
100
AcDbAttribute
280
     0
  2
insamlingsmetod_plan
 70
     1
280
     0
  0
ATTRIB
  5
C4
330
B6
100
AcDbEntity
  8
0
100
AcDbText
 10
127826.03824704
 20
6568029.38213708
 30
0.0
 40
1.0
  1
99
100
AcDbAttribute
280
     0
  2
insamlingsmetod_hojd
 70
     1
280
     0
  0
ATTRIB
  5
C5
330
B6
100
AcDbEntity
  8
0
100
AcDbText
 10
127826.03824704
 20
6568029.38213708
 30
0.0
 40
1.0
  1
0181
100
AcDbAttribute
280
     0
  2
kommunkod
 70
     1
280
     0
  0
ATTRIB
  5
C6
330
B6
100
AcDbEntity
  8
0
100
AcDbText
 10
127826.03824704
 20
6568029.38213708
 30
0.0
 40
1.0
  1
2016-07-12 16:19:43
100
AcDbAttribute
280
     0
  2
skapad_tid
 70
     1
280
     0
  0
ATTRIB
  5
C7
330
B6
100
AcDbEntity
  8
0
100
AcDbText
 10
127826.03824704
 20
6568029.38213708
 30
0.0
 40
1.0
  1
AHALL
100
AcDbAttribute
280
     0
  2
skapad_av
 70
     1
280
     0
  0
ATTRIB
  5
C8
330
B6
100
AcDbEntity
  8
0
100
AcDbText
 10
127826.03824704
 20
6568029.38213708
 30
0.0
 40
1.0
  1
2016-08-25 13:07:08
100
AcDbAttribute
280
     0
  2
andrad_tid
 70
     1
280
     0
  0
ATTRIB
  5
C9
330
B6
100
AcDbEntity
  8
0
100
AcDbText
 10
127826.03824704
 20
6568029.38213708
 30
0.0
 40
1.0
  1
ILAVETT
100
AcDbAttribute
280
     0
  2
andrad_av
 70
     1
280
     0
  0
ATTRIB
  5
CA
330
B6
100
AcDbEntity
  8
0
100
AcDbText
 10
127826.03824704
 20
6568029.38213708
 30
0.0
 40
1.0
  1
20178289;DPCAD.SYMG;550103;0;110015;1
100
AcDbAttribute
280
     0
  2
id_gammalt
 70
     1
280
     0
  0
ATTRIB
  5
CB
330
B6
100
AcDbEntity
  8
0
100
AcDbText
 10
127826.03824704
 20
6568029.38213708
 30
0.0
 40
1.0
  1

100
AcDbAttribute
280
     0
  2
konvert_id
 70
     1
280
     0
  0
ATTRIB
  5
CC
330
B6
100
AcDbEntity
  8
0
100
AcDbText
 10
127826.03824704
 20
6568029.38213708
 30
0.0
 40
1.0
  1

100
AcDbAttribute
280
     0
  2
cad_maner
 70
     1
280
     0
  0
ATTRIB
  5
CD
330
B6
100
AcDbEntity
  8
0
100
AcDbText
 10
127826.03824704
 20
6568029.38213708
 30
0.0
 40
1.0
  1

100
AcDbAttribute
280
     0
  2
MI_STYLE
 70
     1
280
     0
  0
ATTRIB
  5
CE
330
B6
100
AcDbEntity
  8
0
100
AcDbText
 10
127826.03824704
 20
6568029.38213708
 30
0.0
 40
1.0
  1
{2DF5E8B8-EAA5-4A69-BF6C-77E41EB0A3FA}
100
AcDbAttribute
280
     0
  2
lokalid
 70
     1
280
     0
  0
ATTRIB
  5
CF
330
B6
100
AcDbEntity
  8
0
100
AcDbText
 10
127826.03824704
 20
6568029.38213708
 30
0.0
 40
1.0
  1
Odefinierad
100
AcDbAttribute
280
     0
  2
atgard_Text
 70
     1
280
     0
  0
ATTRIB
  5
D0
330
B6
100
AcDbEntity
  8
0
100
AcDbText
 10
127826.03824704
 20
6568029.38213708
 30
0.0
 40
1.0
  1
Odefinierad
100
AcDbAttribute
280
     0
  2
insamlingsmetod_hojd_Text
 70
     1
280
     0
  0
ATTRIB
  5
D1
330
B6
100
AcDbEntity
  8
0
100
AcDbText
 10
127826.03824704
 20
6568029.38213708
 30
0.0
 40
1.0
  1
Geodetiskt - GNSS nätverks-RTK
100
AcDbAttribute
280
     0
  2
insamlingsmetod_plan_Text
 70
     1
280
     0
  0
ATTRIB
  5
D2
330
B6
100
AcDbEntity
  8
0
100
AcDbText
 10
127826.03824704
 20
6568029.38213708
 30
0.0
 40
1.0
  1
10000 mm
100
AcDbAttribute
280
     0
  2
lagesosakerhet_hojd_Text
 70
     1
280
     0
  0
ATTRIB
  5
D3
330
B6
100
AcDbEntity
  8
0
100
AcDbText
 10
127826.03824704
 20
6568029.38213708
 30
0.0
 40
1.0
  1
     35 mm
100
AcDbAttribute
280
     0
  2
lagesosakerhet_plan_Text
 70
     1
280
     0
  0
ATTRIB
  5
D4
330
B6
100
AcDbEntity
  8
0
100
AcDbText
 10
127826.03824704
 20
6568029.38213708
 30
0.0
 40
1.0
  1
Rör i mark
100
AcDbAttribute
280
     0
  2
markeringstyp_Text
 70
     1
280
     0
  0
ATTRIB
  5
D5
330
B6
100
AcDbEntity
  8
0
100
AcDbText
 10
127826.03824704
 20
6568029.38213708
 30
0.0
 40
1.0
  1
Odefinierad
100
AcDbAttribute
280
     0
  2
utredd_Text
 70
     1
280
     0
  0
SEQEND
  5
D6
330
B6
100
AcDbEntity
  8
Gränspunkt
  0
INSERT
  5
D7
330
1F
100
AcDbEntity
  8
Gränspunkt
100
AcDbBlockReference
 66
     1
  2
GRANSPUNKT
 10
127821.54
 20
6568030.863
 30
0.0
 41
0.8000000119209289
 42
0.8000000119209289
  0
ATTRIB
  5
D8
330
D7
100
AcDbEntity
  8
0
100
AcDbText
 10
127821.54
 20
6568030.863
 30
0.0
 40
1.0
  1
79171
100
AcDbAttribute
280
     0
  2
databas_id
 70
     1
280
     0
  0
ATTRIB
  5
D9
330
D7
100
AcDbEntity
  8
0
100
AcDbText
 10
127821.54
 20
6568030.863
 30
0.0
 40
1.0
  1
181322
100
AcDbAttribute
280
     0
  2
granspunktsbeteckning
 70
     1
280
     0
  0
ATTRIB
  5
DA
330
D7
100
AcDbEntity
  8
0
100
AcDbText
 10
127821.54
 20
6568030.863
 30
0.0
 40
1.0
  1

100
AcDbAttribute
280
     0
  2
granspunktsbeteckning_gammal
 70
     1
280
     0
  0
ATTRIB
  5
DB
330
D7
100
AcDbEntity
  8
0
100
AcDbText
 10
127821.54
 20
6568030.863
 30
0.0
 40
1.0
  1

100
AcDbAttribute
280
     0
  2
granspunktsbeteckning_lm
 70
     1
280
     0
  0
ATTRIB
  5
DC
330
D7
100
AcDbEntity
  8
0
100
AcDbText
 10
127821.54
 20
6568030.863
 30
0.0
 40
1.0
  1
1141835
100
AcDbAttribute
280
     0
  2
markeringstyp
 70
     1
280
     0
  0
ATTRIB
  5
DD
330
D7
100
AcDbEntity
  8
0
100
AcDbText
 10
127821.54
 20
6568030.863
 30
0.0
 40
1.0
  1
99
100
AcDbAttribute
280
     0
  2
utredd
 70
     1
280
     0
  0
ATTRIB
  5
DE
330
D7
100
AcDbEntity
  8
0
100
AcDbText
 10
127821.54
 20
6568030.863
 30
0.0
 40
1.0
  1
99
100
AcDbAttribute
280
     0
  2
atgard
 70
     1
280
     0
  0
ATTRIB
  5
DF
330
D7
100
AcDbEntity
  8
0
100
AcDbText
 10
127821.54
 20
6568030.863
 30
0.0
 40
1.0
  1

100
AcDbAttribute
280
     0
  2
kommentar
 70
     1
280
     0
  0
ATTRIB
  5
E0
330
D7
100
AcDbEntity
  8
0
100
AcDbText
 10
127821.54
 20
6568030.863
 30
0.0
 40
1.0
  1
35
100
AcDbAttribute
280
     0
  2
lagesosakerhet_plan
 70
     1
280
     0
  0
ATTRIB
  5
E1
330
D7
100
AcDbEntity
  8
0
100
AcDbText
 10
127821.54
 20
6568030.863
 30
0.0
 40
1.0
  1
10000
100
AcDbAttribute
280
     0
  2
lagesosakerhet_hojd
 70
     1
280
     0
  0
ATTRIB
  5
E2
330
D7
100
AcDbEntity
  8
0
100
AcDbText
 10
127821.54
 20
6568030.863
 30
0.0
 40
1.0
  1

100
AcDbAttribute
280
     0
  2
organisation_plan
 70
     1
280
     0
  0
ATTRIB
  5
E3
330
D7
100
AcDbEntity
  8
0
100
AcDbText
 10
127821.54
 20
6568030.863
 30
0.0
 40
1.0
  1

100
AcDbAttribute
280
     0
  2
organisation_hojd
 70
     1
280
     0
  0
ATTRIB
  5
E4
330
D7
100
AcDbEntity
  8
0
100
AcDbText
 10
127821.54
 20
6568030.863
 30
0.0
 40
1.0
  1
811
100
AcDbAttribute
280
     0
  2
insamlingsmetod_plan
 70
     1
280
     0
  0
ATTRIB
  5
E5
330
D7
100
AcDbEntity
  8
0
100
AcDbText
 10
127821.54
 20
6568030.863
 30
0.0
 40
1.0
  1
99
100
AcDbAttribute
280
     0
  2
insamlingsmetod_hojd
 70
     1
280
     0
  0
ATTRIB
  5
E6
330
D7
100
AcDbEntity
  8
0
100
AcDbText
 10
127821.54
 20
6568030.863
 30
0.0
 40
1.0
  1
0181
100
AcDbAttribute
280
     0
  2
kommunkod
 70
     1
280
     0
  0
ATTRIB
  5
E7
330
D7
100
AcDbEntity
  8
0
100
AcDbText
 10
127821.54
 20
6568030.863
 30
0.0
 40
1.0
  1
2016-07-12 16:19:43
100
AcDbAttribute
280
     0
  2
skapad_tid
 70
     1
280
     0
  0
ATTRIB
  5
E8
330
D7
100
AcDbEntity
  8
0
100
AcDbText
 10
127821.54
 20
6568030.863
 30
0.0
 40
1.0
  1
AHALL
100
AcDbAttribute
280
     0
  2
skapad_av
 70
     1
280
     0
  0
ATTRIB
  5
E9
330
D7
100
AcDbEntity
  8
0
100
AcDbText
 10
127821.54
 20
6568030.863
 30
0.0
 40
1.0
  1
2016-08-25 13:07:08
100
AcDbAttribute
280
     0
  2
andrad_tid
 70
     1
280
     0
  0
ATTRIB
  5
EA
330
D7
100
AcDbEntity
  8
0
100
AcDbText
 10
127821.54
 20
6568030.863
 30
0.0
 40
1.0
  1
ILAVETT
100
AcDbAttribute
280
     0
  2
andrad_av
 70
     1
280
     0
  0
ATTRIB
  5
EB
330
D7
100
AcDbEntity
  8
0
100
AcDbText
 10
127821.54
 20
6568030.863
 30
0.0
 40
1.0
  1
20178288;DPCAD.SYMG;550103;0;110015;1
100
AcDbAttribute
280
     0
  2
id_gammalt
 70
     1
280
     0
  0
ATTRIB
  5
EC
330
D7
100
AcDbEntity
  8
0
100
AcDbText
 10
127821.54
 20
6568030.863
 30
0.0
 40
1.0
  1

100
AcDbAttribute
280
     0
  2
konvert_id
 70
     1
280
     0
  0
ATTRIB
  5
ED
330
D7
100
AcDbEntity
  8
0
100
AcDbText
 10
127821.54
 20
6568030.863
 30
0.0
 40
1.0
  1

100
AcDbAttribute
280
     0
  2
cad_maner
 70
     1
280
     0
  0
ATTRIB
  5
EE
330
D7
100
AcDbEntity
  8
0
100
AcDbText
 10
127821.54
 20
6568030.863
 30
0.0
 40
1.0
  1

100
AcDbAttribute
280
     0
  2
MI_STYLE
 70
     1
280
     0
  0
ATTRIB
  5
EF
330
D7
100
AcDbEntity
  8
0
100
AcDbText
 10
127821.54
 20
6568030.863
 30
0.0
 40
1.0
  1
{9D46B4D0-0DC6-43EE-A0AB-FCD5944C08E0}
100
AcDbAttribute
280
     0
  2
lokalid
 70
     1
280
     0
  0
ATTRIB
  5
F0
330
D7
100
AcDbEntity
  8
0
100
AcDbText
 10
127821.54
 20
6568030.863
 30
0.0
 40
1.0
  1
Odefinierad
100
AcDbAttribute
280
     0
  2
atgard_Text
 70
     1
280
     0
  0
ATTRIB
  5
F1
330
D7
100
AcDbEntity
  8
0
100
AcDbText
 10
127821.54
 20
6568030.863
 30
0.0
 40
1.0
  1
Odefinierad
100
AcDbAttribute
280
     0
  2
insamlingsmetod_hojd_Text
 70
     1
280
     0
  0
ATTRIB
  5
F2
330
D7
100
AcDbEntity
  8
0
100
AcDbText
 10
127821.54
 20
6568030.863
 30
0.0
 40
1.0
  1
Geodetiskt - GNSS nätverks-RTK
100
AcDbAttribute
280
     0
  2
insamlingsmetod_plan_Text
 70
     1
280
     0
  0
ATTRIB
  5
F3
330
D7
100
AcDbEntity
  8
0
100
AcDbText
 10
127821.54
 20
6568030.863
 30
0.0
 40
1.0
  1
10000 mm
100
AcDbAttribute
280
     0
  2
lagesosakerhet_hojd_Text
 70
     1
280
     0
  0
ATTRIB
  5
F4
330
D7
100
AcDbEntity
  8
0
100
AcDbText
 10
127821.54
 20
6568030.863
 30
0.0
 40
1.0
  1
     35 mm
100
AcDbAttribute
280
     0
  2
lagesosakerhet_plan_Text
 70
     1
280
     0
  0
ATTRIB
  5
F5
330
D7
100
AcDbEntity
  8
0
100
AcDbText
 10
127821.54
 20
6568030.863
 30
0.0
 40
1.0
  1
Rör i mark
100
AcDbAttribute
280
     0
  2
markeringstyp_Text
 70
     1
280
     0
  0
ATTRIB
  5
F6
330
D7
100
AcDbEntity
  8
0
100
AcDbText
 10
127821.54
 20
6568030.863
 30
0.0
 40
1.0
  1
Odefinierad
100
AcDbAttribute
280
     0
  2
utredd_Text
 70
     1
280
     0
  0
SEQEND
  5
F7
330
D7
100
AcDbEntity
  8
Gränspunkt
  0
INSERT
  5
F8
330
1F
100
AcDbEntity
  8
Gränspunkt
100
AcDbBlockReference
 66
     1
  2
GRANSPUNKT
 10
127862.209236173
 20
6568067.428476569
 30
0.0
 41
0.8000000119209289
 42
0.8000000119209289
  0
ATTRIB
  5
F9
330
F8
100
AcDbEntity
  8
0
100
AcDbText
 10
127862.209236173
 20
6568067.428476569
 30
0.0
 40
1.0
  1
17074
100
AcDbAttribute
280
     0
  2
databas_id
 70
     1
280
     0
  0
ATTRIB
  5
FA
330
F8
100
AcDbEntity
  8
0
100
AcDbText
 10
127862.209236173
 20
6568067.428476569
 30
0.0
 40
1.0
  1
123918
100
AcDbAttribute
280
     0
  2
granspunktsbeteckning
 70
     1
280
     0
  0
ATTRIB
  5
FB
330
F8
100
AcDbEntity
  8
0
100
AcDbText
 10
127862.209236173
 20
6568067.428476569
 30
0.0
 40
1.0
  1
46D*GRÄ*36
100
AcDbAttribute
280
     0
  2
granspunktsbeteckning_gammal
 70
     1
280
     0
  0
ATTRIB
  5
FC
330
F8
100
AcDbEntity
  8
0
100
AcDbText
 10
127862.209236173
 20
6568067.428476569
 30
0.0
 40
1.0
  1

100
AcDbAttribute
280
     0
  2
granspunktsbeteckning_lm
 70
     1
280
     0
  0
ATTRIB
  5
FD
330
F8
100
AcDbEntity
  8
0
100
AcDbText
 10
127862.209236173
 20
6568067.428476569
 30
0.0
 40
1.0
  1
1141834
100
AcDbAttribute
280
     0
  2
markeringstyp
 70
     1
280
     0
  0
ATTRIB
  5
FE
330
F8
100
AcDbEntity
  8
0
100
AcDbText
 10
127862.209236173
 20
6568067.428476569
 30
0.0
 40
1.0
  1
99
100
AcDbAttribute
280
     0
  2
utredd
 70
     1
280
     0
  0
ATTRIB
  5
FF
330
F8
100
AcDbEntity
  8
0
100
AcDbText
 10
127862.209236173
 20
6568067.428476569
 30
0.0
 40
1.0
  1
99
100
AcDbAttribute
280
     0
  2
atgard
 70
     1
280
     0
  0
ATTRIB
  5
100
330
F8
100
AcDbEntity
  8
0
100
AcDbText
 10
127862.209236173
 20
6568067.428476569
 30
0.0
 40
1.0
  1

100
AcDbAttribute
280
     0
  2
kommentar
 70
     1
280
     0
  0
ATTRIB
  5
101
330
F8
100
AcDbEntity
  8
0
100
AcDbText
 10
127862.209236173
 20
6568067.428476569
 30
0.0
 40
1.0
  1
30
100
AcDbAttribute
280
     0
  2
lagesosakerhet_plan
 70
     1
280
     0
  0
ATTRIB
  5
102
330
F8
100
AcDbEntity
  8
0
100
AcDbText
 10
127862.209236173
 20
6568067.428476569
 30
0.0
 40
1.0
  1
10000
100
AcDbAttribute
280
     0
  2
lagesosakerhet_hojd
 70
     1
280
     0
  0
ATTRIB
  5
103
330
F8
100
AcDbEntity
  8
0
100
AcDbText
 10
127862.209236173
 20
6568067.428476569
 30
0.0
 40
1.0
  1

100
AcDbAttribute
280
     0
  2
organisation_plan
 70
     1
280
     0
  0
ATTRIB
  5
104
330
F8
100
AcDbEntity
  8
0
100
AcDbText
 10
127862.209236173
 20
6568067.428476569
 30
0.0
 40
1.0
  1

100
AcDbAttribute
280
     0
  2
organisation_hojd
 70
     1
280
     0
  0
ATTRIB
  5
105
330
F8
100
AcDbEntity
  8
0
100
AcDbText
 10
127862.209236173
 20
6568067.428476569
 30
0.0
 40
1.0
  1
827
100
AcDbAttribute
280
     0
  2
insamlingsmetod_plan
 70
     1
280
     0
  0
ATTRIB
  5
106
330
F8
100
AcDbEntity
  8
0
100
AcDbText
 10
127862.209236173
 20
6568067.428476569
 30
0.0
 40
1.0
  1
99
100
AcDbAttribute
280
     0
  2
insamlingsmetod_hojd
 70
     1
280
     0
  0
ATTRIB
  5
107
330
F8
100
AcDbEntity
  8
0
100
AcDbText
 10
127862.209236173
 20
6568067.428476569
 30
0.0
 40
1.0
  1
0181
100
AcDbAttribute
280
     0
  2
kommunkod
 70
     1
280
     0
  0
ATTRIB
  5
108
330
F8
100
AcDbEntity
  8
0
100
AcDbText
 10
127862.209236173
 20
6568067.428476569
 30
0.0
 40
1.0
  1
1995-10-26
100
AcDbAttribute
280
     0
  2
skapad_tid
 70
     1
280
     0
  0
ATTRIB
  5
109
330
F8
100
AcDbEntity
  8
0
100
AcDbText
 10
127862.209236173
 20
6568067.428476569
 30
0.0
 40
1.0
  1
mh
100
AcDbAttribute
280
     0
  2
skapad_av
 70
     1
280
     0
  0
ATTRIB
  5
10A
330
F8
100
AcDbEntity
  8
0
100
AcDbText
 10
127862.209236173
 20
6568067.428476569
 30
0.0
 40
1.0
  1
2008-10-09 14:51:50
100
AcDbAttribute
280
     0
  2
andrad_tid
 70
     1
280
     0
  0
ATTRIB
  5
10B
330
F8
100
AcDbEntity
  8
0
100
AcDbText
 10
127862.209236173
 20
6568067.428476569
 30
0.0
 40
1.0
  1
SDTIMP
100
AcDbAttribute
280
     0
  2
andrad_av
 70
     1
280
     0
  0
ATTRIB
  5
10C
330
F8
100
AcDbEntity
  8
0
100
AcDbText
 10
127862.209236173
 20
6568067.428476569
 30
0.0
 40
1.0
  1
3091617;DPCAD.SYMG;550103;0;110015;1
100
AcDbAttribute
280
     0
  2
id_gammalt
 70
     1
280
     0
  0
ATTRIB
  5
10D
330
F8
100
AcDbEntity
  8
0
100
AcDbText
 10
127862.209236173
 20
6568067.428476569
 30
0.0
 40
1.0
  1

100
AcDbAttribute
280
     0
  2
konvert_id
 70
     1
280
     0
  0
ATTRIB
  5
10E
330
F8
100
AcDbEntity
  8
0
100
AcDbText
 10
127862.209236173
 20
6568067.428476569
 30
0.0
 40
1.0
  1

100
AcDbAttribute
280
     0
  2
cad_maner
 70
     1
280
     0
  0
ATTRIB
  5
10F
330
F8
100
AcDbEntity
  8
0
100
AcDbText
 10
127862.209236173
 20
6568067.428476569
 30
0.0
 40
1.0
  1

100
AcDbAttribute
280
     0
  2
MI_STYLE
 70
     1
280
     0
  0
ATTRIB
  5
110
330
F8
100
AcDbEntity
  8
0
100
AcDbText
 10
127862.209236173
 20
6568067.428476569
 30
0.0
 40
1.0
  1
{3E08FCC4-4825-4FA5-89CD-147763AD08D0}
100
AcDbAttribute
280
     0
  2
lokalid
 70
     1
280
     0
  0
ATTRIB
  5
111
330
F8
100
AcDbEntity
  8
0
100
AcDbText
 10
127862.209236173
 20
6568067.428476569
 30
0.0
 40
1.0
  1
Odefinierad
100
AcDbAttribute
280
     0
  2
atgard_Text
 70
     1
280
     0
  0
ATTRIB
  5
112
330
F8
100
AcDbEntity
  8
0
100
AcDbText
 10
127862.209236173
 20
6568067.428476569
 30
0.0
 40
1.0
  1
Odefinierad
100
AcDbAttribute
280
     0
  2
insamlingsmetod_hojd_Text
 70
     1
280
     0
  0
ATTRIB
  5
113
330
F8
100
AcDbEntity
  8
0
100
AcDbText
 10
127862.209236173
 20
6568067.428476569
 30
0.0
 40
1.0
  1
Geodetiskt - Mätt från stomnät
100
AcDbAttribute
280
     0
  2
insamlingsmetod_plan_Text
 70
     1
280
     0
  0
ATTRIB
  5
114
330
F8
100
AcDbEntity
  8
0
100
AcDbText
 10
127862.209236173
 20
6568067.428476569
 30
0.0
 40
1.0
  1
10000 mm
100
AcDbAttribute
280
     0
  2
lagesosakerhet_hojd_Text
 70
     1
280
     0
  0
ATTRIB
  5
115
330
F8
100
AcDbEntity
  8
0
100
AcDbText
 10
127862.209236173
 20
6568067.428476569
 30
0.0
 40
1.0
  1
     30 mm
100
AcDbAttribute
280
     0
  2
lagesosakerhet_plan_Text
 70
     1
280
     0
  0
ATTRIB
  5
116
330
F8
100
AcDbEntity
  8
0
100
AcDbText
 10
127862.209236173
 20
6568067.428476569
 30
0.0
 40
1.0
  1
Rör i gjutning
100
AcDbAttribute
280
     0
  2
markeringstyp_Text
 70
     1
280
     0
  0
ATTRIB
  5
117
330
F8
100
AcDbEntity
  8
0
100
AcDbText
 10
127862.209236173
 20
6568067.428476569
 30
0.0
 40
1.0
  1
Odefinierad
100
AcDbAttribute
280
     0
  2
utredd_Text
 70
     1
280
     0
  0
SEQEND
  5
118
330
F8
100
AcDbEntity
  8
Gränspunkt
  0
INSERT
  5
119
330
1F
100
AcDbEntity
  8
Gränspunkt
100
AcDbBlockReference
 66
     1
  2
GRANSPUNKT
 10
127827.727
 20
6568057.911000001
 30
0.0
 41
0.8000000119209289
 42
0.8000000119209289
  0
ATTRIB
  5
11A
330
119
100
AcDbEntity
  8
0
100
AcDbText
 10
127827.727
 20
6568057.911000001
 30
0.0
 40
1.0
  1
73639
100
AcDbAttribute
280
     0
  2
databas_id
 70
     1
280
     0
  0
ATTRIB
  5
11B
330
119
100
AcDbEntity
  8
0
100
AcDbText
 10
127827.727
 20
6568057.911000001
 30
0.0
 40
1.0
  1
169664
100
AcDbAttribute
280
     0
  2
granspunktsbeteckning
 70
     1
280
     0
  0
ATTRIB
  5
11C
330
119
100
AcDbEntity
  8
0
100
AcDbText
 10
127827.727
 20
6568057.911000001
 30
0.0
 40
1.0
  1

100
AcDbAttribute
280
     0
  2
granspunktsbeteckning_gammal
 70
     1
280
     0
  0
ATTRIB
  5
11D
330
119
100
AcDbEntity
  8
0
100
AcDbText
 10
127827.727
 20
6568057.911000001
 30
0.0
 40
1.0
  1

100
AcDbAttribute
280
     0
  2
granspunktsbeteckning_lm
 70
     1
280
     0
  0
ATTRIB
  5
11E
330
119
100
AcDbEntity
  8
0
100
AcDbText
 10
127827.727
 20
6568057.911000001
 30
0.0
 40
1.0
  1
1141836
100
AcDbAttribute
280
     0
  2
markeringstyp
 70
     1
280
     0
  0
ATTRIB
  5
11F
330
119
100
AcDbEntity
  8
0
100
AcDbText
 10
127827.727
 20
6568057.911000001
 30
0.0
 40
1.0
  1
99
100
AcDbAttribute
280
     0
  2
utredd
 70
     1
280
     0
  0
ATTRIB
  5
120
330
119
100
AcDbEntity
  8
0
100
AcDbText
 10
127827.727
 20
6568057.911000001
 30
0.0
 40
1.0
  1
99
100
AcDbAttribute
280
     0
  2
atgard
 70
     1
280
     0
  0
ATTRIB
  5
121
330
119
100
AcDbEntity
  8
0
100
AcDbText
 10
127827.727
 20
6568057.911000001
 30
0.0
 40
1.0
  1

100
AcDbAttribute
280
     0
  2
kommentar
 70
     1
280
     0
  0
ATTRIB
  5
122
330
119
100
AcDbEntity
  8
0
100
AcDbText
 10
127827.727
 20
6568057.911000001
 30
0.0
 40
1.0
  1
100
100
AcDbAttribute
280
     0
  2
lagesosakerhet_plan
 70
     1
280
     0
  0
ATTRIB
  5
123
330
119
100
AcDbEntity
  8
0
100
AcDbText
 10
127827.727
 20
6568057.911000001
 30
0.0
 40
1.0
  1
10000
100
AcDbAttribute
280
     0
  2
lagesosakerhet_hojd
 70
     1
280
     0
  0
ATTRIB
  5
124
330
119
100
AcDbEntity
  8
0
100
AcDbText
 10
127827.727
 20
6568057.911000001
 30
0.0
 40
1.0
  1

100
AcDbAttribute
280
     0
  2
organisation_plan
 70
     1
280
     0
  0
ATTRIB
  5
125
330
119
100
AcDbEntity
  8
0
100
AcDbText
 10
127827.727
 20
6568057.911000001
 30
0.0
 40
1.0
  1

100
AcDbAttribute
280
     0
  2
organisation_hojd
 70
     1
280
     0
  0
ATTRIB
  5
126
330
119
100
AcDbEntity
  8
0
100
AcDbText
 10
127827.727
 20
6568057.911000001
 30
0.0
 40
1.0
  1
811
100
AcDbAttribute
280
     0
  2
insamlingsmetod_plan
 70
     1
280
     0
  0
ATTRIB
  5
127
330
119
100
AcDbEntity
  8
0
100
AcDbText
 10
127827.727
 20
6568057.911000001
 30
0.0
 40
1.0
  1
99
100
AcDbAttribute
280
     0
  2
insamlingsmetod_hojd
 70
     1
280
     0
  0
ATTRIB
  5
128
330
119
100
AcDbEntity
  8
0
100
AcDbText
 10
127827.727
 20
6568057.911000001
 30
0.0
 40
1.0
  1
0181
100
AcDbAttribute
280
     0
  2
kommunkod
 70
     1
280
     0
  0
ATTRIB
  5
129
330
119
100
AcDbEntity
  8
0
100
AcDbText
 10
127827.727
 20
6568057.911000001
 30
0.0
 40
1.0
  1
2011-09-30 08:56:15
100
AcDbAttribute
280
     0
  2
skapad_tid
 70
     1
280
     0
  0
ATTRIB
  5
12A
330
119
100
AcDbEntity
  8
0
100
AcDbText
 10
127827.727
 20
6568057.911000001
 30
0.0
 40
1.0
  1
CHWE
100
AcDbAttribute
280
     0
  2
skapad_av
 70
     1
280
     0
  0
ATTRIB
  5
12B
330
119
100
AcDbEntity
  8
0
100
AcDbText
 10
127827.727
 20
6568057.911000001
 30
0.0
 40
1.0
  1
2012-01-10 15:19:26
100
AcDbAttribute
280
     0
  2
andrad_tid
 70
     1
280
     0
  0
ATTRIB
  5
12C
330
119
100
AcDbEntity
  8
0
100
AcDbText
 10
127827.727
 20
6568057.911000001
 30
0.0
 40
1.0
  1
YVBE
100
AcDbAttribute
280
     0
  2
andrad_av
 70
     1
280
     0
  0
ATTRIB
  5
12D
330
119
100
AcDbEntity
  8
0
100
AcDbText
 10
127827.727
 20
6568057.911000001
 30
0.0
 40
1.0
  1
6537410;DPCAD.SYMG;550103;0;110015;1
100
AcDbAttribute
280
     0
  2
id_gammalt
 70
     1
280
     0
  0
ATTRIB
  5
12E
330
119
100
AcDbEntity
  8
0
100
AcDbText
 10
127827.727
 20
6568057.911000001
 30
0.0
 40
1.0
  1

100
AcDbAttribute
280
     0
  2
konvert_id
 70
     1
280
     0
  0
ATTRIB
  5
12F
330
119
100
AcDbEntity
  8
0
100
AcDbText
 10
127827.727
 20
6568057.911000001
 30
0.0
 40
1.0
  1

100
AcDbAttribute
280
     0
  2
cad_maner
 70
     1
280
     0
  0
ATTRIB
  5
130
330
119
100
AcDbEntity
  8
0
100
AcDbText
 10
127827.727
 20
6568057.911000001
 30
0.0
 40
1.0
  1

100
AcDbAttribute
280
     0
  2
MI_STYLE
 70
     1
280
     0
  0
ATTRIB
  5
131
330
119
100
AcDbEntity
  8
0
100
AcDbText
 10
127827.727
 20
6568057.911000001
 30
0.0
 40
1.0
  1
{8F9915CD-993A-4B77-8A5B-DAEE874062DE}
100
AcDbAttribute
280
     0
  2
lokalid
 70
     1
280
     0
  0
ATTRIB
  5
132
330
119
100
AcDbEntity
  8
0
100
AcDbText
 10
127827.727
 20
6568057.911000001
 30
0.0
 40
1.0
  1
Odefinierad
100
AcDbAttribute
280
     0
  2
atgard_Text
 70
     1
280
     0
  0
ATTRIB
  5
133
330
119
100
AcDbEntity
  8
0
100
AcDbText
 10
127827.727
 20
6568057.911000001
 30
0.0
 40
1.0
  1
Odefinierad
100
AcDbAttribute
280
     0
  2
insamlingsmetod_hojd_Text
 70
     1
280
     0
  0
ATTRIB
  5
134
330
119
100
AcDbEntity
  8
0
100
AcDbText
 10
127827.727
 20
6568057.911000001
 30
0.0
 40
1.0
  1
Geodetiskt - GNSS nätverks-RTK
100
AcDbAttribute
280
     0
  2
insamlingsmetod_plan_Text
 70
     1
280
     0
  0
ATTRIB
  5
135
330
119
100
AcDbEntity
  8
0
100
AcDbText
 10
127827.727
 20
6568057.911000001
 30
0.0
 40
1.0
  1
10000 mm
100
AcDbAttribute
280
     0
  2
lagesosakerhet_hojd_Text
 70
     1
280
     0
  0
ATTRIB
  5
136
330
119
100
AcDbEntity
  8
0
100
AcDbText
 10
127827.727
 20
6568057.911000001
 30
0.0
 40
1.0
  1
   100 mm
100
AcDbAttribute
280
     0
  2
lagesosakerhet_plan_Text
 70
     1
280
     0
  0
ATTRIB
  5
137
330
119
100
AcDbEntity
  8
0
100
AcDbText
 10
127827.727
 20
6568057.911000001
 30
0.0
 40
1.0
  1
Rör i sten
100
AcDbAttribute
280
     0
  2
markeringstyp_Text
 70
     1
280
     0
  0
ATTRIB
  5
138
330
119
100
AcDbEntity
  8
0
100
AcDbText
 10
127827.727
 20
6568057.911000001
 30
0.0
 40
1.0
  1
Odefinierad
100
AcDbAttribute
280
     0
  2
utredd_Text
 70
     1
280
     0
  0
SEQEND
  5
139
330
119
100
AcDbEntity
  8
Gränspunkt
  0
INSERT
  5
13A
330
1F
100
AcDbEntity
  8
Gränspunkt
100
AcDbBlockReference
 66
     1
  2
GRANSPUNKT
 10
127856.01
 20
6568035.549999999
 30
0.0
 41
0.8000000119209289
 42
0.8000000119209289
  0
ATTRIB
  5
13B
330
13A
100
AcDbEntity
  8
0
100
AcDbText
 10
127856.01
 20
6568035.549999999
 30
0.0
 40
1.0
  1
79169
100
AcDbAttribute
280
     0
  2
databas_id
 70
     1
280
     0
  0
ATTRIB
  5
13C
330
13A
100
AcDbEntity
  8
0
100
AcDbText
 10
127856.01
 20
6568035.549999999
 30
0.0
 40
1.0
  1
181324
100
AcDbAttribute
280
     0
  2
granspunktsbeteckning
 70
     1
280
     0
  0
ATTRIB
  5
13D
330
13A
100
AcDbEntity
  8
0
100
AcDbText
 10
127856.01
 20
6568035.549999999
 30
0.0
 40
1.0
  1

100
AcDbAttribute
280
     0
  2
granspunktsbeteckning_gammal
 70
     1
280
     0
  0
ATTRIB
  5
13E
330
13A
100
AcDbEntity
  8
0
100
AcDbText
 10
127856.01
 20
6568035.549999999
 30
0.0
 40
1.0
  1

100
AcDbAttribute
280
     0
  2
granspunktsbeteckning_lm
 70
     1
280
     0
  0
ATTRIB
  5
13F
330
13A
100
AcDbEntity
  8
0
100
AcDbText
 10
127856.01
 20
6568035.549999999
 30
0.0
 40
1.0
  1
1141835
100
AcDbAttribute
280
     0
  2
markeringstyp
 70
     1
280
     0
  0
ATTRIB
  5
140
330
13A
100
AcDbEntity
  8
0
100
AcDbText
 10
127856.01
 20
6568035.549999999
 30
0.0
 40
1.0
  1
99
100
AcDbAttribute
280
     0
  2
utredd
 70
     1
280
     0
  0
ATTRIB
  5
141
330
13A
100
AcDbEntity
  8
0
100
AcDbText
 10
127856.01
 20
6568035.549999999
 30
0.0
 40
1.0
  1
99
100
AcDbAttribute
280
     0
  2
atgard
 70
     1
280
     0
  0
ATTRIB
  5
142
330
13A
100
AcDbEntity
  8
0
100
AcDbText
 10
127856.01
 20
6568035.549999999
 30
0.0
 40
1.0
  1

100
AcDbAttribute
280
     0
  2
kommentar
 70
     1
280
     0
  0
ATTRIB
  5
143
330
13A
100
AcDbEntity
  8
0
100
AcDbText
 10
127856.01
 20
6568035.549999999
 30
0.0
 40
1.0
  1
35
100
AcDbAttribute
280
     0
  2
lagesosakerhet_plan
 70
     1
280
     0
  0
ATTRIB
  5
144
330
13A
100
AcDbEntity
  8
0
100
AcDbText
 10
127856.01
 20
6568035.549999999
 30
0.0
 40
1.0
  1
10000
100
AcDbAttribute
280
     0
  2
lagesosakerhet_hojd
 70
     1
280
     0
  0
ATTRIB
  5
145
330
13A
100
AcDbEntity
  8
0
100
AcDbText
 10
127856.01
 20
6568035.549999999
 30
0.0
 40
1.0
  1

100
AcDbAttribute
280
     0
  2
organisation_plan
 70
     1
280
     0
  0
ATTRIB
  5
146
330
13A
100
AcDbEntity
  8
0
100
AcDbText
 10
127856.01
 20
6568035.549999999
 30
0.0
 40
1.0
  1

100
AcDbAttribute
280
     0
  2
organisation_hojd
 70
     1
280
     0
  0
ATTRIB
  5
147
330
13A
100
AcDbEntity
  8
0
100
AcDbText
 10
127856.01
 20
6568035.549999999
 30
0.0
 40
1.0
  1
811
100
AcDbAttribute
280
     0
  2
insamlingsmetod_plan
 70
     1
280
     0
  0
ATTRIB
  5
148
330
13A
100
AcDbEntity
  8
0
100
AcDbText
 10
127856.01
 20
6568035.549999999
 30
0.0
 40
1.0
  1
99
100
AcDbAttribute
280
     0
  2
insamlingsmetod_hojd
 70
     1
280
     0
  0
ATTRIB
  5
149
330
13A
100
AcDbEntity
  8
0
100
AcDbText
 10
127856.01
 20
6568035.549999999
 30
0.0
 40
1.0
  1
0181
100
AcDbAttribute
280
     0
  2
kommunkod
 70
     1
280
     0
  0
ATTRIB
  5
14A
330
13A
100
AcDbEntity
  8
0
100
AcDbText
 10
127856.01
 20
6568035.549999999
 30
0.0
 40
1.0
  1
2016-07-12 16:19:43
100
AcDbAttribute
280
     0
  2
skapad_tid
 70
     1
280
     0
  0
ATTRIB
  5
14B
330
13A
100
AcDbEntity
  8
0
100
AcDbText
 10
127856.01
 20
6568035.549999999
 30
0.0
 40
1.0
  1
AHALL
100
AcDbAttribute
280
     0
  2
skapad_av
 70
     1
280
     0
  0
ATTRIB
  5
14C
330
13A
100
AcDbEntity
  8
0
100
AcDbText
 10
127856.01
 20
6568035.549999999
 30
0.0
 40
1.0
  1
2016-08-25 13:07:08
100
AcDbAttribute
280
     0
  2
andrad_tid
 70
     1
280
     0
  0
ATTRIB
  5
14D
330
13A
100
AcDbEntity
  8
0
100
AcDbText
 10
127856.01
 20
6568035.549999999
 30
0.0
 40
1.0
  1
ILAVETT
100
AcDbAttribute
280
     0
  2
andrad_av
 70
     1
280
     0
  0
ATTRIB
  5
14E
330
13A
100
AcDbEntity
  8
0
100
AcDbText
 10
127856.01
 20
6568035.549999999
 30
0.0
 40
1.0
  1
20178290;DPCAD.SYMG;550103;0;110015;1
100
AcDbAttribute
280
     0
  2
id_gammalt
 70
     1
280
     0
  0
ATTRIB
  5
14F
330
13A
100
AcDbEntity
  8
0
100
AcDbText
 10
127856.01
 20
6568035.549999999
 30
0.0
 40
1.0
  1

100
AcDbAttribute
280
     0
  2
konvert_id
 70
     1
280
     0
  0
ATTRIB
  5
150
330
13A
100
AcDbEntity
  8
0
100
AcDbText
 10
127856.01
 20
6568035.549999999
 30
0.0
 40
1.0
  1

100
AcDbAttribute
280
     0
  2
cad_maner
 70
     1
280
     0
  0
ATTRIB
  5
151
330
13A
100
AcDbEntity
  8
0
100
AcDbText
 10
127856.01
 20
6568035.549999999
 30
0.0
 40
1.0
  1

100
AcDbAttribute
280
     0
  2
MI_STYLE
 70
     1
280
     0
  0
ATTRIB
  5
152
330
13A
100
AcDbEntity
  8
0
100
AcDbText
 10
127856.01
 20
6568035.549999999
 30
0.0
 40
1.0
  1
{C0CCFC28-1575-4E89-AC82-C9D8FD364AD2}
100
AcDbAttribute
280
     0
  2
lokalid
 70
     1
280
     0
  0
ATTRIB
  5
153
330
13A
100
AcDbEntity
  8
0
100
AcDbText
 10
127856.01
 20
6568035.549999999
 30
0.0
 40
1.0
  1
Odefinierad
100
AcDbAttribute
280
     0
  2
atgard_Text
 70
     1
280
     0
  0
ATTRIB
  5
154
330
13A
100
AcDbEntity
  8
0
100
AcDbText
 10
127856.01
 20
6568035.549999999
 30
0.0
 40
1.0
  1
Odefinierad
100
AcDbAttribute
280
     0
  2
insamlingsmetod_hojd_Text
 70
     1
280
     0
  0
ATTRIB
  5
155
330
13A
100
AcDbEntity
  8
0
100
AcDbText
 10
127856.01
 20
6568035.549999999
 30
0.0
 40
1.0
  1
Geodetiskt - GNSS nätverks-RTK
100
AcDbAttribute
280
     0
  2
insamlingsmetod_plan_Text
 70
     1
280
     0
  0
ATTRIB
  5
156
330
13A
100
AcDbEntity
  8
0
100
AcDbText
 10
127856.01
 20
6568035.549999999
 30
0.0
 40
1.0
  1
10000 mm
100
AcDbAttribute
280
     0
  2
lagesosakerhet_hojd_Text
 70
     1
280
     0
  0
ATTRIB
  5
157
330
13A
100
AcDbEntity
  8
0
100
AcDbText
 10
127856.01
 20
6568035.549999999
 30
0.0
 40
1.0
  1
     35 mm
100
AcDbAttribute
280
     0
  2
lagesosakerhet_plan_Text
 70
     1
280
     0
  0
ATTRIB
  5
158
330
13A
100
AcDbEntity
  8
0
100
AcDbText
 10
127856.01
 20
6568035.549999999
 30
0.0
 40
1.0
  1
Rör i mark
100
AcDbAttribute
280
     0
  2
markeringstyp_Text
 70
     1
280
     0
  0
ATTRIB
  5
159
330
13A
100
AcDbEntity
  8
0
100
AcDbText
 10
127856.01
 20
6568035.549999999
 30
0.0
 40
1.0
  1
Odefinierad
100
AcDbAttribute
280
     0
  2
utredd_Text
 70
     1
280
     0
  0
SEQEND
  5
15A
330
13A
100
AcDbEntity
  8
Gränspunkt
  0
INSERT
  5
161
330
1F
100
AcDbEntity
  8
Fastighetsgräns
100
AcDbBlockReference
 66
     1
  2
1
 10
0.0
 20
0.0
 30
0.0
  0
ATTRIB
  5
162
330
161
100
AcDbEntity
  8
0
100
AcDbText
 10
0.0
 20
0.0
 30
0.0
 40
1.0
  1
1010
100
AcDbAttribute
280
     0
  2
databas_id
 70
     1
280
     0
  0
ATTRIB
  5
163
330
161
100
AcDbEntity
  8
0
100
AcDbText
 10
0.0
 20
0.0
 30
0.0
 40
1.0
  1
14031
100
AcDbAttribute
280
     0
  2
granstyp
 70
     1
280
     0
  0
ATTRIB
  5
164
330
161
100
AcDbEntity
  8
0
100
AcDbText
 10
0.0
 20
0.0
 30
0.0
 40
1.0
  1
99
100
AcDbAttribute
280
     0
  2
utredd
 70
     1
280
     0
  0
ATTRIB
  5
165
330
161
100
AcDbEntity
  8
0
100
AcDbText
 10
0.0
 20
0.0
 30
0.0
 40
1.0
  1

100
AcDbAttribute
280
     0
  2
kommentar
 70
     1
280
     0
  0
ATTRIB
  5
166
330
161
100
AcDbEntity
  8
0
100
AcDbText
 10
0.0
 20
0.0
 30
0.0
 40
1.0
  1
30
100
AcDbAttribute
280
     0
  2
lagesosakerhet_plan
 70
     1
280
     0
  0
ATTRIB
  5
167
330
161
100
AcDbEntity
  8
0
100
AcDbText
 10
0.0
 20
0.0
 30
0.0
 40
1.0
  1
10000
100
AcDbAttribute
280
     0
  2
lagesosakerhet_hojd
 70
     1
280
     0
  0
ATTRIB
  5
168
330
161
100
AcDbEntity
  8
0
100
AcDbText
 10
0.0
 20
0.0
 30
0.0
 40
1.0
  1

100
AcDbAttribute
280
     0
  2
organisation_plan
 70
     1
280
     0
  0
ATTRIB
  5
169
330
161
100
AcDbEntity
  8
0
100
AcDbText
 10
0.0
 20
0.0
 30
0.0
 40
1.0
  1

100
AcDbAttribute
280
     0
  2
organisation_hojd
 70
     1
280
     0
  0
ATTRIB
  5
16A
330
161
100
AcDbEntity
  8
0
100
AcDbText
 10
0.0
 20
0.0
 30
0.0
 40
1.0
  1
827
100
AcDbAttribute
280
     0
  2
insamlingsmetod_plan
 70
     1
280
     0
  0
ATTRIB
  5
16B
330
161
100
AcDbEntity
  8
0
100
AcDbText
 10
0.0
 20
0.0
 30
0.0
 40
1.0
  1
99
100
AcDbAttribute
280
     0
  2
insamlingsmetod_hojd
 70
     1
280
     0
  0
ATTRIB
  5
16C
330
161
100
AcDbEntity
  8
0
100
AcDbText
 10
0.0
 20
0.0
 30
0.0
 40
1.0
  1
0181
100
AcDbAttribute
280
     0
  2
kommunkod
 70
     1
280
     0
  0
ATTRIB
  5
16D
330
161
100
AcDbEntity
  8
0
100
AcDbText
 10
0.0
 20
0.0
 30
0.0
 40
1.0
  1
1998-08-13
100
AcDbAttribute
280
     0
  2
skapad_tid
 70
     1
280
     0
  0
ATTRIB
  5
16E
330
161
100
AcDbEntity
  8
0
100
AcDbText
 10
0.0
 20
0.0
 30
0.0
 40
1.0
  1
YVONNEE
100
AcDbAttribute
280
     0
  2
skapad_av
 70
     1
280
     0
  0
ATTRIB
  5
16F
330
161
100
AcDbEntity
  8
0
100
AcDbText
 10
0.0
 20
0.0
 30
0.0
 40
1.0
  1
2012-01-10 15:19:26
100
AcDbAttribute
280
     0
  2
andrad_tid
 70
     1
280
     0
  0
ATTRIB
  5
170
330
161
100
AcDbEntity
  8
0
100
AcDbText
 10
0.0
 20
0.0
 30
0.0
 40
1.0
  1
YVBE
100
AcDbAttribute
280
     0
  2
andrad_av
 70
     1
280
     0
  0
ATTRIB
  5
171
330
161
100
AcDbEntity
  8
0
100
AcDbText
 10
0.0
 20
0.0
 30
0.0
 40
1.0
  1
4150763;DPCAD.GRAG;550102;0;110014;1
100
AcDbAttribute
280
     0
  2
id_gammalt
 70
     1
280
     0
  0
ATTRIB
  5
172
330
161
100
AcDbEntity
  8
0
100
AcDbText
 10
0.0
 20
0.0
 30
0.0
 40
1.0
  1

100
AcDbAttribute
280
     0
  2
konvert_id
 70
     1
280
     0
  0
ATTRIB
  5
173
330
161
100
AcDbEntity
  8
0
100
AcDbText
 10
0.0
 20
0.0
 30
0.0
 40
1.0
  1

100
AcDbAttribute
280
     0
  2
cad_maner
 70
     1
280
     0
  0
ATTRIB
  5
174
330
161
100
AcDbEntity
  8
0
100
AcDbText
 10
0.0
 20
0.0
 30
0.0
 40
1.0
  1

100
AcDbAttribute
280
     0
  2
MI_STYLE
 70
     1
280
     0
  0
ATTRIB
  5
175
330
161
100
AcDbEntity
  8
0
100
AcDbText
 10
0.0
 20
0.0
 30
0.0
 40
1.0
  1
{C31DB593-6356-462A-8FB4-CA36925432BD}
100
AcDbAttribute
280
     0
  2
lokalid
 70
     1
280
     0
  0
ATTRIB
  5
176
330
161
100
AcDbEntity
  8
0
100
AcDbText
 10
0.0
 20
0.0
 30
0.0
 40
1.0
  1
Fastighetsgräns
100
AcDbAttribute
280
     0
  2
granstyp_Text
 70
     1
280
     0
  0
ATTRIB
  5
177
330
161
100
AcDbEntity
  8
0
100
AcDbText
 10
0.0
 20
0.0
 30
0.0
 40
1.0
  1
Odefinierad
100
AcDbAttribute
280
     0
  2
insamlingsmetod_hojd_Text
 70
     1
280
     0
  0
ATTRIB
  5
178
330
161
100
AcDbEntity
  8
0
100
AcDbText
 10
0.0
 20
0.0
 30
0.0
 40
1.0
  1
Geodetiskt - Mätt från stomnät
100
AcDbAttribute
280
     0
  2
insamlingsmetod_plan_Text
 70
     1
280
     0
  0
ATTRIB
  5
179
330
161
100
AcDbEntity
  8
0
100
AcDbText
 10
0.0
 20
0.0
 30
0.0
 40
1.0
  1
10000 mm
100
AcDbAttribute
280
     0
  2
lagesosakerhet_hojd_Text
 70
     1
280
     0
  0
ATTRIB
  5
17A
330
161
100
AcDbEntity
  8
0
100
AcDbText
 10
0.0
 20
0.0
 30
0.0
 40
1.0
  1
     30 mm
100
AcDbAttribute
280
     0
  2
lagesosakerhet_plan_Text
 70
     1
280
     0
  0
ATTRIB
  5
17B
330
161
100
AcDbEntity
  8
0
100
AcDbText
 10
0.0
 20
0.0
 30
0.0
 40
1.0
  1
Odefinierad
100
AcDbAttribute
280
     0
  2
utredd_Text
 70
     1
280
     0
  0
SEQEND
  5
17C
330
161
100
AcDbEntity
  8
Fastighetsgräns
  0
INSERT
  5
181
330
1F
100
AcDbEntity
  8
Fastighetsgräns
100
AcDbBlockReference
 66
     1
  2
2
 10
0.0
 20
0.0
 30
0.0
  0
ATTRIB
  5
182
330
181
100
AcDbEntity
  8
0
100
AcDbText
 10
0.0
 20
0.0
 30
0.0
 40
1.0
  1
105120
100
AcDbAttribute
280
     0
  2
databas_id
 70
     1
280
     0
  0
ATTRIB
  5
183
330
181
100
AcDbEntity
  8
0
100
AcDbText
 10
0.0
 20
0.0
 30
0.0
 40
1.0
  1
14031
100
AcDbAttribute
280
     0
  2
granstyp
 70
     1
280
     0
  0
ATTRIB
  5
184
330
181
100
AcDbEntity
  8
0
100
AcDbText
 10
0.0
 20
0.0
 30
0.0
 40
1.0
  1
99
100
AcDbAttribute
280
     0
  2
utredd
 70
     1
280
     0
  0
ATTRIB
  5
185
330
181
100
AcDbEntity
  8
0
100
AcDbText
 10
0.0
 20
0.0
 30
0.0
 40
1.0
  1

100
AcDbAttribute
280
     0
  2
kommentar
 70
     1
280
     0
  0
ATTRIB
  5
186
330
181
100
AcDbEntity
  8
0
100
AcDbText
 10
0.0
 20
0.0
 30
0.0
 40
1.0
  1
35
100
AcDbAttribute
280
     0
  2
lagesosakerhet_plan
 70
     1
280
     0
  0
ATTRIB
  5
187
330
181
100
AcDbEntity
  8
0
100
AcDbText
 10
0.0
 20
0.0
 30
0.0
 40
1.0
  1
10000
100
AcDbAttribute
280
     0
  2
lagesosakerhet_hojd
 70
     1
280
     0
  0
ATTRIB
  5
188
330
181
100
AcDbEntity
  8
0
100
AcDbText
 10
0.0
 20
0.0
 30
0.0
 40
1.0
  1

100
AcDbAttribute
280
     0
  2
organisation_plan
 70
     1
280
     0
  0
ATTRIB
  5
189
330
181
100
AcDbEntity
  8
0
100
AcDbText
 10
0.0
 20
0.0
 30
0.0
 40
1.0
  1

100
AcDbAttribute
280
     0
  2
organisation_hojd
 70
     1
280
     0
  0
ATTRIB
  5
18A
330
181
100
AcDbEntity
  8
0
100
AcDbText
 10
0.0
 20
0.0
 30
0.0
 40
1.0
  1
811
100
AcDbAttribute
280
     0
  2
insamlingsmetod_plan
 70
     1
280
     0
  0
ATTRIB
  5
18B
330
181
100
AcDbEntity
  8
0
100
AcDbText
 10
0.0
 20
0.0
 30
0.0
 40
1.0
  1
99
100
AcDbAttribute
280
     0
  2
insamlingsmetod_hojd
 70
     1
280
     0
  0
ATTRIB
  5
18C
330
181
100
AcDbEntity
  8
0
100
AcDbText
 10
0.0
 20
0.0
 30
0.0
 40
1.0
  1
0181
100
AcDbAttribute
280
     0
  2
kommunkod
 70
     1
280
     0
  0
ATTRIB
  5
18D
330
181
100
AcDbEntity
  8
0
100
AcDbText
 10
0.0
 20
0.0
 30
0.0
 40
1.0
  1
2016-07-12 16:19:43
100
AcDbAttribute
280
     0
  2
skapad_tid
 70
     1
280
     0
  0
ATTRIB
  5
18E
330
181
100
AcDbEntity
  8
0
100
AcDbText
 10
0.0
 20
0.0
 30
0.0
 40
1.0
  1
AHALL
100
AcDbAttribute
280
     0
  2
skapad_av
 70
     1
280
     0
  0
ATTRIB
  5
18F
330
181
100
AcDbEntity
  8
0
100
AcDbText
 10
0.0
 20
0.0
 30
0.0
 40
1.0
  1
2016-08-25 13:07:08
100
AcDbAttribute
280
     0
  2
andrad_tid
 70
     1
280
     0
  0
ATTRIB
  5
190
330
181
100
AcDbEntity
  8
0
100
AcDbText
 10
0.0
 20
0.0
 30
0.0
 40
1.0
  1
ILAVETT
100
AcDbAttribute
280
     0
  2
andrad_av
 70
     1
280
     0
  0
ATTRIB
  5
191
330
181
100
AcDbEntity
  8
0
100
AcDbText
 10
0.0
 20
0.0
 30
0.0
 40
1.0
  1
20178294;DPCAD.GRAG;550102;0;110014;1
100
AcDbAttribute
280
     0
  2
id_gammalt
 70
     1
280
     0
  0
ATTRIB
  5
192
330
181
100
AcDbEntity
  8
0
100
AcDbText
 10
0.0
 20
0.0
 30
0.0
 40
1.0
  1

100
AcDbAttribute
280
     0
  2
konvert_id
 70
     1
280
     0
  0
ATTRIB
  5
193
330
181
100
AcDbEntity
  8
0
100
AcDbText
 10
0.0
 20
0.0
 30
0.0
 40
1.0
  1

100
AcDbAttribute
280
     0
  2
cad_maner
 70
     1
280
     0
  0
ATTRIB
  5
194
330
181
100
AcDbEntity
  8
0
100
AcDbText
 10
0.0
 20
0.0
 30
0.0
 40
1.0
  1

100
AcDbAttribute
280
     0
  2
MI_STYLE
 70
     1
280
     0
  0
ATTRIB
  5
195
330
181
100
AcDbEntity
  8
0
100
AcDbText
 10
0.0
 20
0.0
 30
0.0
 40
1.0
  1
{95DB1197-AB22-411A-BC29-81C83958DE7C}
100
AcDbAttribute
280
     0
  2
lokalid
 70
     1
280
     0
  0
ATTRIB
  5
196
330
181
100
AcDbEntity
  8
0
100
AcDbText
 10
0.0
 20
0.0
 30
0.0
 40
1.0
  1
Fastighetsgräns
100
AcDbAttribute
280
     0
  2
granstyp_Text
 70
     1
280
     0
  0
ATTRIB
  5
197
330
181
100
AcDbEntity
  8
0
100
AcDbText
 10
0.0
 20
0.0
 30
0.0
 40
1.0
  1
Odefinierad
100
AcDbAttribute
280
     0
  2
insamlingsmetod_hojd_Text
 70
     1
280
     0
  0
ATTRIB
  5
198
330
181
100
AcDbEntity
  8
0
100
AcDbText
 10
0.0
 20
0.0
 30
0.0
 40
1.0
  1
Geodetiskt - GNSS nätverks-RTK
100
AcDbAttribute
280
     0
  2
insamlingsmetod_plan_Text
 70
     1
280
     0
  0
ATTRIB
  5
199
330
181
100
AcDbEntity
  8
0
100
AcDbText
 10
0.0
 20
0.0
 30
0.0
 40
1.0
  1
10000 mm
100
AcDbAttribute
280
     0
  2
lagesosakerhet_hojd_Text
 70
     1
280
     0
  0
ATTRIB
  5
19A
330
181
100
AcDbEntity
  8
0
100
AcDbText
 10
0.0
 20
0.0
 30
0.0
 40
1.0
  1
     35 mm
100
AcDbAttribute
280
     0
  2
lagesosakerhet_plan_Text
 70
     1
280
     0
  0
ATTRIB
  5
19B
330
181
100
AcDbEntity
  8
0
100
AcDbText
 10
0.0
 20
0.0
 30
0.0
 40
1.0
  1
Odefinierad
100
AcDbAttribute
280
     0
  2
utredd_Text
 70
     1
280
     0
  0
SEQEND
  5
19C
330
181
100
AcDbEntity
  8
Fastighetsgräns
  0
INSERT
  5
1A1
330
1F
100
AcDbEntity
  8
Fastighetsgräns
100
AcDbBlockReference
 66
     1
  2
4
 10
0.0
 20
0.0
 30
0.0
  0
ATTRIB
  5
1A2
330
1A1
100
AcDbEntity
  8
0
100
AcDbText
 10
0.0
 20
0.0
 30
0.0
 40
1.0
  1
91557
100
AcDbAttribute
280
     0
  2
databas_id
 70
     1
280
     0
  0
ATTRIB
  5
1A3
330
1A1
100
AcDbEntity
  8
0
100
AcDbText
 10
0.0
 20
0.0
 30
0.0
 40
1.0
  1
14031
100
AcDbAttribute
280
     0
  2
granstyp
 70
     1
280
     0
  0
ATTRIB
  5
1A4
330
1A1
100
AcDbEntity
  8
0
100
AcDbText
 10
0.0
 20
0.0
 30
0.0
 40
1.0
  1
99
100
AcDbAttribute
280
     0
  2
utredd
 70
     1
280
     0
  0
ATTRIB
  5
1A5
330
1A1
100
AcDbEntity
  8
0
100
AcDbText
 10
0.0
 20
0.0
 30
0.0
 40
1.0
  1

100
AcDbAttribute
280
     0
  2
kommentar
 70
     1
280
     0
  0
ATTRIB
  5
1A6
330
1A1
100
AcDbEntity
  8
0
100
AcDbText
 10
0.0
 20
0.0
 30
0.0
 40
1.0
  1
30
100
AcDbAttribute
280
     0
  2
lagesosakerhet_plan
 70
     1
280
     0
  0
ATTRIB
  5
1A7
330
1A1
100
AcDbEntity
  8
0
100
AcDbText
 10
0.0
 20
0.0
 30
0.0
 40
1.0
  1
10000
100
AcDbAttribute
280
     0
  2
lagesosakerhet_hojd
 70
     1
280
     0
  0
ATTRIB
  5
1A8
330
1A1
100
AcDbEntity
  8
0
100
AcDbText
 10
0.0
 20
0.0
 30
0.0
 40
1.0
  1

100
AcDbAttribute
280
     0
  2
organisation_plan
 70
     1
280
     0
  0
ATTRIB
  5
1A9
330
1A1
100
AcDbEntity
  8
0
100
AcDbText
 10
0.0
 20
0.0
 30
0.0
 40
1.0
  1

100
AcDbAttribute
280
     0
  2
organisation_hojd
 70
     1
280
     0
  0
ATTRIB
  5
1AA
330
1A1
100
AcDbEntity
  8
0
100
AcDbText
 10
0.0
 20
0.0
 30
0.0
 40
1.0
  1
827
100
AcDbAttribute
280
     0
  2
insamlingsmetod_plan
 70
     1
280
     0
  0
ATTRIB
  5
1AB
330
1A1
100
AcDbEntity
  8
0
100
AcDbText
 10
0.0
 20
0.0
 30
0.0
 40
1.0
  1
99
100
AcDbAttribute
280
     0
  2
insamlingsmetod_hojd
 70
     1
280
     0
  0
ATTRIB
  5
1AC
330
1A1
100
AcDbEntity
  8
0
100
AcDbText
 10
0.0
 20
0.0
 30
0.0
 40
1.0
  1
0181
100
AcDbAttribute
280
     0
  2
kommunkod
 70
     1
280
     0
  0
ATTRIB
  5
1AD
330
1A1
100
AcDbEntity
  8
0
100
AcDbText
 10
0.0
 20
0.0
 30
0.0
 40
1.0
  1
1998-08-13
100
AcDbAttribute
280
     0
  2
skapad_tid
 70
     1
280
     0
  0
ATTRIB
  5
1AE
330
1A1
100
AcDbEntity
  8
0
100
AcDbText
 10
0.0
 20
0.0
 30
0.0
 40
1.0
  1
YVONNEE
100
AcDbAttribute
280
     0
  2
skapad_av
 70
     1
280
     0
  0
ATTRIB
  5
1AF
330
1A1
100
AcDbEntity
  8
0
100
AcDbText
 10
0.0
 20
0.0
 30
0.0
 40
1.0
  1
2016-08-25 13:07:08
100
AcDbAttribute
280
     0
  2
andrad_tid
 70
     1
280
     0
  0
ATTRIB
  5
1B0
330
1A1
100
AcDbEntity
  8
0
100
AcDbText
 10
0.0
 20
0.0
 30
0.0
 40
1.0
  1
ILAVETT
100
AcDbAttribute
280
     0
  2
andrad_av
 70
     1
280
     0
  0
ATTRIB
  5
1B1
330
1A1
100
AcDbEntity
  8
0
100
AcDbText
 10
0.0
 20
0.0
 30
0.0
 40
1.0
  1
6698556;DPCAD.GRAG;550102;0;110014;1
100
AcDbAttribute
280
     0
  2
id_gammalt
 70
     1
280
     0
  0
ATTRIB
  5
1B2
330
1A1
100
AcDbEntity
  8
0
100
AcDbText
 10
0.0
 20
0.0
 30
0.0
 40
1.0
  1

100
AcDbAttribute
280
     0
  2
konvert_id
 70
     1
280
     0
  0
ATTRIB
  5
1B3
330
1A1
100
AcDbEntity
  8
0
100
AcDbText
 10
0.0
 20
0.0
 30
0.0
 40
1.0
  1

100
AcDbAttribute
280
     0
  2
cad_maner
 70
     1
280
     0
  0
ATTRIB
  5
1B4
330
1A1
100
AcDbEntity
  8
0
100
AcDbText
 10
0.0
 20
0.0
 30
0.0
 40
1.0
  1

100
AcDbAttribute
280
     0
  2
MI_STYLE
 70
     1
280
     0
  0
ATTRIB
  5
1B5
330
1A1
100
AcDbEntity
  8
0
100
AcDbText
 10
0.0
 20
0.0
 30
0.0
 40
1.0
  1
{656BE2FA-0578-46C6-BC5C-EB92E49A1981}
100
AcDbAttribute
280
     0
  2
lokalid
 70
     1
280
     0
  0
ATTRIB
  5
1B6
330
1A1
100
AcDbEntity
  8
0
100
AcDbText
 10
0.0
 20
0.0
 30
0.0
 40
1.0
  1
Fastighetsgräns
100
AcDbAttribute
280
     0
  2
granstyp_Text
 70
     1
280
     0
  0
ATTRIB
  5
1B7
330
1A1
100
AcDbEntity
  8
0
100
AcDbText
 10
0.0
 20
0.0
 30
0.0
 40
1.0
  1
Odefinierad
100
AcDbAttribute
280
     0
  2
insamlingsmetod_hojd_Text
 70
     1
280
     0
  0
ATTRIB
  5
1B8
330
1A1
100
AcDbEntity
  8
0
100
AcDbText
 10
0.0
 20
0.0
 30
0.0
 40
1.0
  1
Geodetiskt - Mätt från stomnät
100
AcDbAttribute
280
     0
  2
insamlingsmetod_plan_Text
 70
     1
280
     0
  0
ATTRIB
  5
1B9
330
1A1
100
AcDbEntity
  8
0
100
AcDbText
 10
0.0
 20
0.0
 30
0.0
 40
1.0
  1
10000 mm
100
AcDbAttribute
280
     0
  2
lagesosakerhet_hojd_Text
 70
     1
280
     0
  0
ATTRIB
  5
1BA
330
1A1
100
AcDbEntity
  8
0
100
AcDbText
 10
0.0
 20
0.0
 30
0.0
 40
1.0
  1
     30 mm
100
AcDbAttribute
280
     0
  2
lagesosakerhet_plan_Text
 70
     1
280
     0
  0
ATTRIB
  5
1BB
330
1A1
100
AcDbEntity
  8
0
100
AcDbText
 10
0.0
 20
0.0
 30
0.0
 40
1.0
  1
Odefinierad
100
AcDbAttribute
280
     0
  2
utredd_Text
 70
     1
280
     0
  0
SEQEND
  5
1BC
330
1A1
100
AcDbEntity
  8
Fastighetsgräns
  0
INSERT
  5
1C1
330
1F
100
AcDbEntity
  8
Fastighetsgräns
100
AcDbBlockReference
 66
     1
  2
5
 10
0.0
 20
0.0
 30
0.0
  0
ATTRIB
  5
1C2
330
1C1
100
AcDbEntity
  8
0
100
AcDbText
 10
0.0
 20
0.0
 30
0.0
 40
1.0
  1
105119
100
AcDbAttribute
280
     0
  2
databas_id
 70
     1
280
     0
  0
ATTRIB
  5
1C3
330
1C1
100
AcDbEntity
  8
0
100
AcDbText
 10
0.0
 20
0.0
 30
0.0
 40
1.0
  1
14031
100
AcDbAttribute
280
     0
  2
granstyp
 70
     1
280
     0
  0
ATTRIB
  5
1C4
330
1C1
100
AcDbEntity
  8
0
100
AcDbText
 10
0.0
 20
0.0
 30
0.0
 40
1.0
  1
99
100
AcDbAttribute
280
     0
  2
utredd
 70
     1
280
     0
  0
ATTRIB
  5
1C5
330
1C1
100
AcDbEntity
  8
0
100
AcDbText
 10
0.0
 20
0.0
 30
0.0
 40
1.0
  1

100
AcDbAttribute
280
     0
  2
kommentar
 70
     1
280
     0
  0
ATTRIB
  5
1C6
330
1C1
100
AcDbEntity
  8
0
100
AcDbText
 10
0.0
 20
0.0
 30
0.0
 40
1.0
  1
35
100
AcDbAttribute
280
     0
  2
lagesosakerhet_plan
 70
     1
280
     0
  0
ATTRIB
  5
1C7
330
1C1
100
AcDbEntity
  8
0
100
AcDbText
 10
0.0
 20
0.0
 30
0.0
 40
1.0
  1
10000
100
AcDbAttribute
280
     0
  2
lagesosakerhet_hojd
 70
     1
280
     0
  0
ATTRIB
  5
1C8
330
1C1
100
AcDbEntity
  8
0
100
AcDbText
 10
0.0
 20
0.0
 30
0.0
 40
1.0
  1

100
AcDbAttribute
280
     0
  2
organisation_plan
 70
     1
280
     0
  0
ATTRIB
  5
1C9
330
1C1
100
AcDbEntity
  8
0
100
AcDbText
 10
0.0
 20
0.0
 30
0.0
 40
1.0
  1

100
AcDbAttribute
280
     0
  2
organisation_hojd
 70
     1
280
     0
  0
ATTRIB
  5
1CA
330
1C1
100
AcDbEntity
  8
0
100
AcDbText
 10
0.0
 20
0.0
 30
0.0
 40
1.0
  1
811
100
AcDbAttribute
280
     0
  2
insamlingsmetod_plan
 70
     1
280
     0
  0
ATTRIB
  5
1CB
330
1C1
100
AcDbEntity
  8
0
100
AcDbText
 10
0.0
 20
0.0
 30
0.0
 40
1.0
  1
99
100
AcDbAttribute
280
     0
  2
insamlingsmetod_hojd
 70
     1
280
     0
  0
ATTRIB
  5
1CC
330
1C1
100
AcDbEntity
  8
0
100
AcDbText
 10
0.0
 20
0.0
 30
0.0
 40
1.0
  1
0181
100
AcDbAttribute
280
     0
  2
kommunkod
 70
     1
280
     0
  0
ATTRIB
  5
1CD
330
1C1
100
AcDbEntity
  8
0
100
AcDbText
 10
0.0
 20
0.0
 30
0.0
 40
1.0
  1
2016-07-12 16:19:43
100
AcDbAttribute
280
     0
  2
skapad_tid
 70
     1
280
     0
  0
ATTRIB
  5
1CE
330
1C1
100
AcDbEntity
  8
0
100
AcDbText
 10
0.0
 20
0.0
 30
0.0
 40
1.0
  1
AHALL
100
AcDbAttribute
280
     0
  2
skapad_av
 70
     1
280
     0
  0
ATTRIB
  5
1CF
330
1C1
100
AcDbEntity
  8
0
100
AcDbText
 10
0.0
 20
0.0
 30
0.0
 40
1.0
  1
2016-08-25 13:07:08
100
AcDbAttribute
280
     0
  2
andrad_tid
 70
     1
280
     0
  0
ATTRIB
  5
1D0
330
1C1
100
AcDbEntity
  8
0
100
AcDbText
 10
0.0
 20
0.0
 30
0.0
 40
1.0
  1
ILAVETT
100
AcDbAttribute
280
     0
  2
andrad_av
 70
     1
280
     0
  0
ATTRIB
  5
1D1
330
1C1
100
AcDbEntity
  8
0
100
AcDbText
 10
0.0
 20
0.0
 30
0.0
 40
1.0
  1
20178293;DPCAD.GRAG;550102;0;110014;1
100
AcDbAttribute
280
     0
  2
id_gammalt
 70
     1
280
     0
  0
ATTRIB
  5
1D2
330
1C1
100
AcDbEntity
  8
0
100
AcDbText
 10
0.0
 20
0.0
 30
0.0
 40
1.0
  1

100
AcDbAttribute
280
     0
  2
konvert_id
 70
     1
280
     0
  0
ATTRIB
  5
1D3
330
1C1
100
AcDbEntity
  8
0
100
AcDbText
 10
0.0
 20
0.0
 30
0.0
 40
1.0
  1

100
AcDbAttribute
280
     0
  2
cad_maner
 70
     1
280
     0
  0
ATTRIB
  5
1D4
330
1C1
100
AcDbEntity
  8
0
100
AcDbText
 10
0.0
 20
0.0
 30
0.0
 40
1.0
  1

100
AcDbAttribute
280
     0
  2
MI_STYLE
 70
     1
280
     0
  0
ATTRIB
  5
1D5
330
1C1
100
AcDbEntity
  8
0
100
AcDbText
 10
0.0
 20
0.0
 30
0.0
 40
1.0
  1
{59CD4468-CF57-42CB-A436-2C290EFBC2B8}
100
AcDbAttribute
280
     0
  2
lokalid
 70
     1
280
     0
  0
ATTRIB
  5
1D6
330
1C1
100
AcDbEntity
  8
0
100
AcDbText
 10
0.0
 20
0.0
 30
0.0
 40
1.0
  1
Fastighetsgräns
100
AcDbAttribute
280
     0
  2
granstyp_Text
 70
     1
280
     0
  0
ATTRIB
  5
1D7
330
1C1
100
AcDbEntity
  8
0
100
AcDbText
 10
0.0
 20
0.0
 30
0.0
 40
1.0
  1
Odefinierad
100
AcDbAttribute
280
     0
  2
insamlingsmetod_hojd_Text
 70
     1
280
     0
  0
ATTRIB
  5
1D8
330
1C1
100
AcDbEntity
  8
0
100
AcDbText
 10
0.0
 20
0.0
 30
0.0
 40
1.0
  1
Geodetiskt - GNSS nätverks-RTK
100
AcDbAttribute
280
     0
  2
insamlingsmetod_plan_Text
 70
     1
280
     0
  0
ATTRIB
  5
1D9
330
1C1
100
AcDbEntity
  8
0
100
AcDbText
 10
0.0
 20
0.0
 30
0.0
 40
1.0
  1
10000 mm
100
AcDbAttribute
280
     0
  2
lagesosakerhet_hojd_Text
 70
     1
280
     0
  0
ATTRIB
  5
1DA
330
1C1
100
AcDbEntity
  8
0
100
AcDbText
 10
0.0
 20
0.0
 30
0.0
 40
1.0
  1
     35 mm
100
AcDbAttribute
280
     0
  2
lagesosakerhet_plan_Text
 70
     1
280
     0
  0
ATTRIB
  5
1DB
330
1C1
100
AcDbEntity
  8
0
100
AcDbText
 10
0.0
 20
0.0
 30
0.0
 40
1.0
  1
Odefinierad
100
AcDbAttribute
280
     0
  2
utredd_Text
 70
     1
280
     0
  0
SEQEND
  5
1DC
330
1C1
100
AcDbEntity
  8
Fastighetsgräns
  0
INSERT
  5
1E1
330
1F
100
AcDbEntity
  8
Fastighetsgräns
100
AcDbBlockReference
 66
     1
  2
7
 10
0.0
 20
0.0
 30
0.0
  0
ATTRIB
  5
1E2
330
1E1
100
AcDbEntity
  8
0
100
AcDbText
 10
0.0
 20
0.0
 30
0.0
 40
1.0
  1
105179
100
AcDbAttribute
280
     0
  2
databas_id
 70
     1
280
     0
  0
ATTRIB
  5
1E3
330
1E1
100
AcDbEntity
  8
0
100
AcDbText
 10
0.0
 20
0.0
 30
0.0
 40
1.0
  1
14031
100
AcDbAttribute
280
     0
  2
granstyp
 70
     1
280
     0
  0
ATTRIB
  5
1E4
330
1E1
100
AcDbEntity
  8
0
100
AcDbText
 10
0.0
 20
0.0
 30
0.0
 40
1.0
  1
99
100
AcDbAttribute
280
     0
  2
utredd
 70
     1
280
     0
  0
ATTRIB
  5
1E5
330
1E1
100
AcDbEntity
  8
0
100
AcDbText
 10
0.0
 20
0.0
 30
0.0
 40
1.0
  1

100
AcDbAttribute
280
     0
  2
kommentar
 70
     1
280
     0
  0
ATTRIB
  5
1E6
330
1E1
100
AcDbEntity
  8
0
100
AcDbText
 10
0.0
 20
0.0
 30
0.0
 40
1.0
  1
35
100
AcDbAttribute
280
     0
  2
lagesosakerhet_plan
 70
     1
280
     0
  0
ATTRIB
  5
1E7
330
1E1
100
AcDbEntity
  8
0
100
AcDbText
 10
0.0
 20
0.0
 30
0.0
 40
1.0
  1
10000
100
AcDbAttribute
280
     0
  2
lagesosakerhet_hojd
 70
     1
280
     0
  0
ATTRIB
  5
1E8
330
1E1
100
AcDbEntity
  8
0
100
AcDbText
 10
0.0
 20
0.0
 30
0.0
 40
1.0
  1

100
AcDbAttribute
280
     0
  2
organisation_plan
 70
     1
280
     0
  0
ATTRIB
  5
1E9
330
1E1
100
AcDbEntity
  8
0
100
AcDbText
 10
0.0
 20
0.0
 30
0.0
 40
1.0
  1

100
AcDbAttribute
280
     0
  2
organisation_hojd
 70
     1
280
     0
  0
ATTRIB
  5
1EA
330
1E1
100
AcDbEntity
  8
0
100
AcDbText
 10
0.0
 20
0.0
 30
0.0
 40
1.0
  1
811
100
AcDbAttribute
280
     0
  2
insamlingsmetod_plan
 70
     1
280
     0
  0
ATTRIB
  5
1EB
330
1E1
100
AcDbEntity
  8
0
100
AcDbText
 10
0.0
 20
0.0
 30
0.0
 40
1.0
  1
99
100
AcDbAttribute
280
     0
  2
insamlingsmetod_hojd
 70
     1
280
     0
  0
ATTRIB
  5
1EC
330
1E1
100
AcDbEntity
  8
0
100
AcDbText
 10
0.0
 20
0.0
 30
0.0
 40
1.0
  1
0181
100
AcDbAttribute
280
     0
  2
kommunkod
 70
     1
280
     0
  0
ATTRIB
  5
1ED
330
1E1
100
AcDbEntity
  8
0
100
AcDbText
 10
0.0
 20
0.0
 30
0.0
 40
1.0
  1
2016-07-12 16:19:43
100
AcDbAttribute
280
     0
  2
skapad_tid
 70
     1
280
     0
  0
ATTRIB
  5
1EE
330
1E1
100
AcDbEntity
  8
0
100
AcDbText
 10
0.0
 20
0.0
 30
0.0
 40
1.0
  1
AHALL
100
AcDbAttribute
280
     0
  2
skapad_av
 70
     1
280
     0
  0
ATTRIB
  5
1EF
330
1E1
100
AcDbEntity
  8
0
100
AcDbText
 10
0.0
 20
0.0
 30
0.0
 40
1.0
  1
2016-08-25 13:07:08
100
AcDbAttribute
280
     0
  2
andrad_tid
 70
     1
280
     0
  0
ATTRIB
  5
1F0
330
1E1
100
AcDbEntity
  8
0
100
AcDbText
 10
0.0
 20
0.0
 30
0.0
 40
1.0
  1
ILAVETT
100
AcDbAttribute
280
     0
  2
andrad_av
 70
     1
280
     0
  0
ATTRIB
  5
1F1
330
1E1
100
AcDbEntity
  8
0
100
AcDbText
 10
0.0
 20
0.0
 30
0.0
 40
1.0
  1
20178295;DPCAD.GRAG;550102;0;110014;1
100
AcDbAttribute
280
     0
  2
id_gammalt
 70
     1
280
     0
  0
ATTRIB
  5
1F2
330
1E1
100
AcDbEntity
  8
0
100
AcDbText
 10
0.0
 20
0.0
 30
0.0
 40
1.0
  1

100
AcDbAttribute
280
     0
  2
konvert_id
 70
     1
280
     0
  0
ATTRIB
  5
1F3
330
1E1
100
AcDbEntity
  8
0
100
AcDbText
 10
0.0
 20
0.0
 30
0.0
 40
1.0
  1

100
AcDbAttribute
280
     0
  2
cad_maner
 70
     1
280
     0
  0
ATTRIB
  5
1F4
330
1E1
100
AcDbEntity
  8
0
100
AcDbText
 10
0.0
 20
0.0
 30
0.0
 40
1.0
  1

100
AcDbAttribute
280
     0
  2
MI_STYLE
 70
     1
280
     0
  0
ATTRIB
  5
1F5
330
1E1
100
AcDbEntity
  8
0
100
AcDbText
 10
0.0
 20
0.0
 30
0.0
 40
1.0
  1
{C859BB3C-AEF7-4097-9D8E-78EA42099F5E}
100
AcDbAttribute
280
     0
  2
lokalid
 70
     1
280
     0
  0
ATTRIB
  5
1F6
330
1E1
100
AcDbEntity
  8
0
100
AcDbText
 10
0.0
 20
0.0
 30
0.0
 40
1.0
  1
Fastighetsgräns
100
AcDbAttribute
280
     0
  2
granstyp_Text
 70
     1
280
     0
  0
ATTRIB
  5
1F7
330
1E1
100
AcDbEntity
  8
0
100
AcDbText
 10
0.0
 20
0.0
 30
0.0
 40
1.0
  1
Odefinierad
100
AcDbAttribute
280
     0
  2
insamlingsmetod_hojd_Text
 70
     1
280
     0
  0
ATTRIB
  5
1F8
330
1E1
100
AcDbEntity
  8
0
100
AcDbText
 10
0.0
 20
0.0
 30
0.0
 40
1.0
  1
Geodetiskt - GNSS nätverks-RTK
100
AcDbAttribute
280
     0
  2
insamlingsmetod_plan_Text
 70
     1
280
     0
  0
ATTRIB
  5
1F9
330
1E1
100
AcDbEntity
  8
0
100
AcDbText
 10
0.0
 20
0.0
 30
0.0
 40
1.0
  1
10000 mm
100
AcDbAttribute
280
     0
  2
lagesosakerhet_hojd_Text
 70
     1
280
     0
  0
ATTRIB
  5
1FA
330
1E1
100
AcDbEntity
  8
0
100
AcDbText
 10
0.0
 20
0.0
 30
0.0
 40
1.0
  1
     35 mm
100
AcDbAttribute
280
     0
  2
lagesosakerhet_plan_Text
 70
     1
280
     0
  0
ATTRIB
  5
1FB
330
1E1
100
AcDbEntity
  8
0
100
AcDbText
 10
0.0
 20
0.0
 30
0.0
 40
1.0
  1
Odefinierad
100
AcDbAttribute
280
     0
  2
utredd_Text
 70
     1
280
     0
  0
SEQEND
  5
1FC
330
1E1
100
AcDbEntity
  8
Fastighetsgräns
  0
INSERT
  5
201
330
1F
100
AcDbEntity
  8
Fastighetsgräns
100
AcDbBlockReference
 66
     1
  2
9
 10
0.0
 20
0.0
 30
0.0
  0
ATTRIB
  5
202
330
201
100
AcDbEntity
  8
0
100
AcDbText
 10
0.0
 20
0.0
 30
0.0
 40
1.0
  1
91556
100
AcDbAttribute
280
     0
  2
databas_id
 70
     1
280
     0
  0
ATTRIB
  5
203
330
201
100
AcDbEntity
  8
0
100
AcDbText
 10
0.0
 20
0.0
 30
0.0
 40
1.0
  1
14031
100
AcDbAttribute
280
     0
  2
granstyp
 70
     1
280
     0
  0
ATTRIB
  5
204
330
201
100
AcDbEntity
  8
0
100
AcDbText
 10
0.0
 20
0.0
 30
0.0
 40
1.0
  1
99
100
AcDbAttribute
280
     0
  2
utredd
 70
     1
280
     0
  0
ATTRIB
  5
205
330
201
100
AcDbEntity
  8
0
100
AcDbText
 10
0.0
 20
0.0
 30
0.0
 40
1.0
  1

100
AcDbAttribute
280
     0
  2
kommentar
 70
     1
280
     0
  0
ATTRIB
  5
206
330
201
100
AcDbEntity
  8
0
100
AcDbText
 10
0.0
 20
0.0
 30
0.0
 40
1.0
  1
30
100
AcDbAttribute
280
     0
  2
lagesosakerhet_plan
 70
     1
280
     0
  0
ATTRIB
  5
207
330
201
100
AcDbEntity
  8
0
100
AcDbText
 10
0.0
 20
0.0
 30
0.0
 40
1.0
  1
10000
100
AcDbAttribute
280
     0
  2
lagesosakerhet_hojd
 70
     1
280
     0
  0
ATTRIB
  5
208
330
201
100
AcDbEntity
  8
0
100
AcDbText
 10
0.0
 20
0.0
 30
0.0
 40
1.0
  1

100
AcDbAttribute
280
     0
  2
organisation_plan
 70
     1
280
     0
  0
ATTRIB
  5
209
330
201
100
AcDbEntity
  8
0
100
AcDbText
 10
0.0
 20
0.0
 30
0.0
 40
1.0
  1

100
AcDbAttribute
280
     0
  2
organisation_hojd
 70
     1
280
     0
  0
ATTRIB
  5
20A
330
201
100
AcDbEntity
  8
0
100
AcDbText
 10
0.0
 20
0.0
 30
0.0
 40
1.0
  1
827
100
AcDbAttribute
280
     0
  2
insamlingsmetod_plan
 70
     1
280
     0
  0
ATTRIB
  5
20B
330
201
100
AcDbEntity
  8
0
100
AcDbText
 10
0.0
 20
0.0
 30
0.0
 40
1.0
  1
99
100
AcDbAttribute
280
     0
  2
insamlingsmetod_hojd
 70
     1
280
     0
  0
ATTRIB
  5
20C
330
201
100
AcDbEntity
  8
0
100
AcDbText
 10
0.0
 20
0.0
 30
0.0
 40
1.0
  1
0181
100
AcDbAttribute
280
     0
  2
kommunkod
 70
     1
280
     0
  0
ATTRIB
  5
20D
330
201
100
AcDbEntity
  8
0
100
AcDbText
 10
0.0
 20
0.0
 30
0.0
 40
1.0
  1
1998-08-13
100
AcDbAttribute
280
     0
  2
skapad_tid
 70
     1
280
     0
  0
ATTRIB
  5
20E
330
201
100
AcDbEntity
  8
0
100
AcDbText
 10
0.0
 20
0.0
 30
0.0
 40
1.0
  1
YVONNEE
100
AcDbAttribute
280
     0
  2
skapad_av
 70
     1
280
     0
  0
ATTRIB
  5
20F
330
201
100
AcDbEntity
  8
0
100
AcDbText
 10
0.0
 20
0.0
 30
0.0
 40
1.0
  1
2016-08-25 13:07:08
100
AcDbAttribute
280
     0
  2
andrad_tid
 70
     1
280
     0
  0
ATTRIB
  5
210
330
201
100
AcDbEntity
  8
0
100
AcDbText
 10
0.0
 20
0.0
 30
0.0
 40
1.0
  1
ILAVETT
100
AcDbAttribute
280
     0
  2
andrad_av
 70
     1
280
     0
  0
ATTRIB
  5
211
330
201
100
AcDbEntity
  8
0
100
AcDbText
 10
0.0
 20
0.0
 30
0.0
 40
1.0
  1
4153082;DPCAD.GRAG;550102;0;110014;1
100
AcDbAttribute
280
     0
  2
id_gammalt
 70
     1
280
     0
  0
ATTRIB
  5
212
330
201
100
AcDbEntity
  8
0
100
AcDbText
 10
0.0
 20
0.0
 30
0.0
 40
1.0
  1

100
AcDbAttribute
280
     0
  2
konvert_id
 70
     1
280
     0
  0
ATTRIB
  5
213
330
201
100
AcDbEntity
  8
0
100
AcDbText
 10
0.0
 20
0.0
 30
0.0
 40
1.0
  1

100
AcDbAttribute
280
     0
  2
cad_maner
 70
     1
280
     0
  0
ATTRIB
  5
214
330
201
100
AcDbEntity
  8
0
100
AcDbText
 10
0.0
 20
0.0
 30
0.0
 40
1.0
  1

100
AcDbAttribute
280
     0
  2
MI_STYLE
 70
     1
280
     0
  0
ATTRIB
  5
215
330
201
100
AcDbEntity
  8
0
100
AcDbText
 10
0.0
 20
0.0
 30
0.0
 40
1.0
  1
{BFF50EEA-DDF0-42A4-A856-498C730E7980}
100
AcDbAttribute
280
     0
  2
lokalid
 70
     1
280
     0
  0
ATTRIB
  5
216
330
201
100
AcDbEntity
  8
0
100
AcDbText
 10
0.0
 20
0.0
 30
0.0
 40
1.0
  1
Fastighetsgräns
100
AcDbAttribute
280
     0
  2
granstyp_Text
 70
     1
280
     0
  0
ATTRIB
  5
217
330
201
100
AcDbEntity
  8
0
100
AcDbText
 10
0.0
 20
0.0
 30
0.0
 40
1.0
  1
Odefinierad
100
AcDbAttribute
280
     0
  2
insamlingsmetod_hojd_Text
 70
     1
280
     0
  0
ATTRIB
  5
218
330
201
100
AcDbEntity
  8
0
100
AcDbText
 10
0.0
 20
0.0
 30
0.0
 40
1.0
  1
Geodetiskt - Mätt från stomnät
100
AcDbAttribute
280
     0
  2
insamlingsmetod_plan_Text
 70
     1
280
     0
  0
ATTRIB
  5
219
330
201
100
AcDbEntity
  8
0
100
AcDbText
 10
0.0
 20
0.0
 30
0.0
 40
1.0
  1
10000 mm
100
AcDbAttribute
280
     0
  2
lagesosakerhet_hojd_Text
 70
     1
280
     0
  0
ATTRIB
  5
21A
330
201
100
AcDbEntity
  8
0
100
AcDbText
 10
0.0
 20
0.0
 30
0.0
 40
1.0
  1
     30 mm
100
AcDbAttribute
280
     0
  2
lagesosakerhet_plan_Text
 70
     1
280
     0
  0
ATTRIB
  5
21B
330
201
100
AcDbEntity
  8
0
100
AcDbText
 10
0.0
 20
0.0
 30
0.0
 40
1.0
  1
Odefinierad
100
AcDbAttribute
280
     0
  2
utredd_Text
 70
     1
280
     0
  0
SEQEND
  5
21C
330
201
100
AcDbEntity
  8
Fastighetsgräns
  0
INSERT
  5
221
330
1F
100
AcDbEntity
  8
Fastighetsgräns
100
AcDbBlockReference
 66
     1
  2
10
 10
0.0
 20
0.0
 30
0.0
  0
ATTRIB
  5
222
330
221
100
AcDbEntity
  8
0
100
AcDbText
 10
0.0
 20
0.0
 30
0.0
 40
1.0
  1
105118
100
AcDbAttribute
280
     0
  2
databas_id
 70
     1
280
     0
  0
ATTRIB
  5
223
330
221
100
AcDbEntity
  8
0
100
AcDbText
 10
0.0
 20
0.0
 30
0.0
 40
1.0
  1
14031
100
AcDbAttribute
280
     0
  2
granstyp
 70
     1
280
     0
  0
ATTRIB
  5
224
330
221
100
AcDbEntity
  8
0
100
AcDbText
 10
0.0
 20
0.0
 30
0.0
 40
1.0
  1
99
100
AcDbAttribute
280
     0
  2
utredd
 70
     1
280
     0
  0
ATTRIB
  5
225
330
221
100
AcDbEntity
  8
0
100
AcDbText
 10
0.0
 20
0.0
 30
0.0
 40
1.0
  1

100
AcDbAttribute
280
     0
  2
kommentar
 70
     1
280
     0
  0
ATTRIB
  5
226
330
221
100
AcDbEntity
  8
0
100
AcDbText
 10
0.0
 20
0.0
 30
0.0
 40
1.0
  1
35
100
AcDbAttribute
280
     0
  2
lagesosakerhet_plan
 70
     1
280
     0
  0
ATTRIB
  5
227
330
221
100
AcDbEntity
  8
0
100
AcDbText
 10
0.0
 20
0.0
 30
0.0
 40
1.0
  1
10000
100
AcDbAttribute
280
     0
  2
lagesosakerhet_hojd
 70
     1
280
     0
  0
ATTRIB
  5
228
330
221
100
AcDbEntity
  8
0
100
AcDbText
 10
0.0
 20
0.0
 30
0.0
 40
1.0
  1

100
AcDbAttribute
280
     0
  2
organisation_plan
 70
     1
280
     0
  0
ATTRIB
  5
229
330
221
100
AcDbEntity
  8
0
100
AcDbText
 10
0.0
 20
0.0
 30
0.0
 40
1.0
  1

100
AcDbAttribute
280
     0
  2
organisation_hojd
 70
     1
280
     0
  0
ATTRIB
  5
22A
330
221
100
AcDbEntity
  8
0
100
AcDbText
 10
0.0
 20
0.0
 30
0.0
 40
1.0
  1
811
100
AcDbAttribute
280
     0
  2
insamlingsmetod_plan
 70
     1
280
     0
  0
ATTRIB
  5
22B
330
221
100
AcDbEntity
  8
0
100
AcDbText
 10
0.0
 20
0.0
 30
0.0
 40
1.0
  1
99
100
AcDbAttribute
280
     0
  2
insamlingsmetod_hojd
 70
     1
280
     0
  0
ATTRIB
  5
22C
330
221
100
AcDbEntity
  8
0
100
AcDbText
 10
0.0
 20
0.0
 30
0.0
 40
1.0
  1
0181
100
AcDbAttribute
280
     0
  2
kommunkod
 70
     1
280
     0
  0
ATTRIB
  5
22D
330
221
100
AcDbEntity
  8
0
100
AcDbText
 10
0.0
 20
0.0
 30
0.0
 40
1.0
  1
2016-07-12 16:19:43
100
AcDbAttribute
280
     0
  2
skapad_tid
 70
     1
280
     0
  0
ATTRIB
  5
22E
330
221
100
AcDbEntity
  8
0
100
AcDbText
 10
0.0
 20
0.0
 30
0.0
 40
1.0
  1
AHALL
100
AcDbAttribute
280
     0
  2
skapad_av
 70
     1
280
     0
  0
ATTRIB
  5
22F
330
221
100
AcDbEntity
  8
0
100
AcDbText
 10
0.0
 20
0.0
 30
0.0
 40
1.0
  1
2016-08-25 13:07:08
100
AcDbAttribute
280
     0
  2
andrad_tid
 70
     1
280
     0
  0
ATTRIB
  5
230
330
221
100
AcDbEntity
  8
0
100
AcDbText
 10
0.0
 20
0.0
 30
0.0
 40
1.0
  1
ILAVETT
100
AcDbAttribute
280
     0
  2
andrad_av
 70
     1
280
     0
  0
ATTRIB
  5
231
330
221
100
AcDbEntity
  8
0
100
AcDbText
 10
0.0
 20
0.0
 30
0.0
 40
1.0
  1
20178292;DPCAD.GRAG;550102;0;110014;1
100
AcDbAttribute
280
     0
  2
id_gammalt
 70
     1
280
     0
  0
ATTRIB
  5
232
330
221
100
AcDbEntity
  8
0
100
AcDbText
 10
0.0
 20
0.0
 30
0.0
 40
1.0
  1

100
AcDbAttribute
280
     0
  2
konvert_id
 70
     1
280
     0
  0
ATTRIB
  5
233
330
221
100
AcDbEntity
  8
0
100
AcDbText
 10
0.0
 20
0.0
 30
0.0
 40
1.0
  1

100
AcDbAttribute
280
     0
  2
cad_maner
 70
     1
280
     0
  0
ATTRIB
  5
234
330
221
100
AcDbEntity
  8
0
100
AcDbText
 10
0.0
 20
0.0
 30
0.0
 40
1.0
  1

100
AcDbAttribute
280
     0
  2
MI_STYLE
 70
     1
280
     0
  0
ATTRIB
  5
235
330
221
100
AcDbEntity
  8
0
100
AcDbText
 10
0.0
 20
0.0
 30
0.0
 40
1.0
  1
{BA7F4D5B-65F0-418D-9527-EE7657339E1D}
100
AcDbAttribute
280
     0
  2
lokalid
 70
     1
280
     0
  0
ATTRIB
  5
236
330
221
100
AcDbEntity
  8
0
100
AcDbText
 10
0.0
 20
0.0
 30
0.0
 40
1.0
  1
Fastighetsgräns
100
AcDbAttribute
280
     0
  2
granstyp_Text
 70
     1
280
     0
  0
ATTRIB
  5
237
330
221
100
AcDbEntity
  8
0
100
AcDbText
 10
0.0
 20
0.0
 30
0.0
 40
1.0
  1
Odefinierad
100
AcDbAttribute
280
     0
  2
insamlingsmetod_hojd_Text
 70
     1
280
     0
  0
ATTRIB
  5
238
330
221
100
AcDbEntity
  8
0
100
AcDbText
 10
0.0
 20
0.0
 30
0.0
 40
1.0
  1
Geodetiskt - GNSS nätverks-RTK
100
AcDbAttribute
280
     0
  2
insamlingsmetod_plan_Text
 70
     1
280
     0
  0
ATTRIB
  5
239
330
221
100
AcDbEntity
  8
0
100
AcDbText
 10
0.0
 20
0.0
 30
0.0
 40
1.0
  1
10000 mm
100
AcDbAttribute
280
     0
  2
lagesosakerhet_hojd_Text
 70
     1
280
     0
  0
ATTRIB
  5
23A
330
221
100
AcDbEntity
  8
0
100
AcDbText
 10
0.0
 20
0.0
 30
0.0
 40
1.0
  1
     35 mm
100
AcDbAttribute
280
     0
  2
lagesosakerhet_plan_Text
 70
     1
280
     0
  0
ATTRIB
  5
23B
330
221
100
AcDbEntity
  8
0
100
AcDbText
 10
0.0
 20
0.0
 30
0.0
 40
1.0
  1
Odefinierad
100
AcDbAttribute
280
     0
  2
utredd_Text
 70
     1
280
     0
  0
SEQEND
  5
23C
330
221
100
AcDbEntity
  8
Fastighetsgräns
  0
INSERT
  5
26E
330
1F
100
AcDbEntity
  8
Byggnadskartografilinje
100
AcDbBlockReference
 66
     1
  2
14
 10
0.0
 20
0.0
 30
0.0
  0
ATTRIB
  5
26F
330
26E
100
AcDbEntity
  8
0
100
AcDbText
 10
0.0
 20
0.0
 30
0.0
 40
1.0
  1
62866
100
AcDbAttribute
280
     0
  2
databas_id
 70
     1
280
     0
  0
ATTRIB
  5
270
330
26E
100
AcDbEntity
  8
0
100
AcDbText
 10
0.0
 20
0.0
 30
0.0
 40
1.0
  1
120141110
100
AcDbAttribute
280
     0
  2
detaljtyp
 70
     1
280
     0
  0
ATTRIB
  5
271
330
26E
100
AcDbEntity
  8
0
100
AcDbText
 10
0.0
 20
0.0
 30
0.0
 40
1.0
  1

100
AcDbAttribute
280
     0
  2
kommentar
 70
     1
280
     0
  0
ATTRIB
  5
272
330
26E
100
AcDbEntity
  8
0
100
AcDbText
 10
0.0
 20
0.0
 30
0.0
 40
1.0
  1
0181
100
AcDbAttribute
280
     0
  2
kommunkod
 70
     1
280
     0
  0
ATTRIB
  5
273
330
26E
100
AcDbEntity
  8
0
100
AcDbText
 10
0.0
 20
0.0
 30
0.0
 40
1.0
  1
2017-11-27 17:26:54
100
AcDbAttribute
280
     0
  2
skapad_tid
 70
     1
280
     0
  0
ATTRIB
  5
274
330
26E
100
AcDbEntity
  8
0
100
AcDbText
 10
0.0
 20
0.0
 30
0.0
 40
1.0
  1
jernberg
100
AcDbAttribute
280
     0
  2
skapad_av
 70
     1
280
     0
  0
ATTRIB
  5
275
330
26E
100
AcDbEntity
  8
0
100
AcDbText
 10
0.0
 20
0.0
 30
0.0
 40
1.0
  1
2017-11-27 17:26:54
100
AcDbAttribute
280
     0
  2
andrad_tid
 70
     1
280
     0
  0
ATTRIB
  5
276
330
26E
100
AcDbEntity
  8
0
100
AcDbText
 10
0.0
 20
0.0
 30
0.0
 40
1.0
  1
jernberg
100
AcDbAttribute
280
     0
  2
andrad_av
 70
     1
280
     0
  0
ATTRIB
  5
277
330
26E
100
AcDbEntity
  8
0
100
AcDbText
 10
0.0
 20
0.0
 30
0.0
 40
1.0
  1

100
AcDbAttribute
280
     0
  2
id_gammalt
 70
     1
280
     0
  0
ATTRIB
  5
278
330
26E
100
AcDbEntity
  8
0
100
AcDbText
 10
0.0
 20
0.0
 30
0.0
 40
1.0
  1
{BEDC3676-7442-493B-AA14-ECA1B34CE53D}
100
AcDbAttribute
280
     0
  2
lokalid
 70
     1
280
     0
  0
ATTRIB
  5
279
330
26E
100
AcDbEntity
  8
0
100
AcDbText
 10
0.0
 20
0.0
 30
0.0
 40
1.0
  1
Bostad
100
AcDbAttribute
280
     0
  2
detaljtyp_Text
 70
     1
280
     0
  0
SEQEND
  5
27A
330
26E
100
AcDbEntity
  8
Byggnadskartografilinje
  0
INSERT
  5
282
330
1F
100
AcDbEntity
  8
Byggnadskartografilinje
100
AcDbBlockReference
 66
     1
  2
15
 10
0.0
 20
0.0
 30
0.0
  0
ATTRIB
  5
283
330
282
100
AcDbEntity
  8
0
100
AcDbText
 10
0.0
 20
0.0
 30
0.0
 40
1.0
  1
62867
100
AcDbAttribute
280
     0
  2
databas_id
 70
     1
280
     0
  0
ATTRIB
  5
284
330
282
100
AcDbEntity
  8
0
100
AcDbText
 10
0.0
 20
0.0
 30
0.0
 40
1.0
  1
120141110
100
AcDbAttribute
280
     0
  2
detaljtyp
 70
     1
280
     0
  0
ATTRIB
  5
285
330
282
100
AcDbEntity
  8
0
100
AcDbText
 10
0.0
 20
0.0
 30
0.0
 40
1.0
  1

100
AcDbAttribute
280
     0
  2
kommentar
 70
     1
280
     0
  0
ATTRIB
  5
286
330
282
100
AcDbEntity
  8
0
100
AcDbText
 10
0.0
 20
0.0
 30
0.0
 40
1.0
  1
0181
100
AcDbAttribute
280
     0
  2
kommunkod
 70
     1
280
     0
  0
ATTRIB
  5
287
330
282
100
AcDbEntity
  8
0
100
AcDbText
 10
0.0
 20
0.0
 30
0.0
 40
1.0
  1
2017-11-27 17:26:54
100
AcDbAttribute
280
     0
  2
skapad_tid
 70
     1
280
     0
  0
ATTRIB
  5
288
330
282
100
AcDbEntity
  8
0
100
AcDbText
 10
0.0
 20
0.0
 30
0.0
 40
1.0
  1
jernberg
100
AcDbAttribute
280
     0
  2
skapad_av
 70
     1
280
     0
  0
ATTRIB
  5
289
330
282
100
AcDbEntity
  8
0
100
AcDbText
 10
0.0
 20
0.0
 30
0.0
 40
1.0
  1
2017-11-27 17:26:54
100
AcDbAttribute
280
     0
  2
andrad_tid
 70
     1
280
     0
  0
ATTRIB
  5
28A
330
282
100
AcDbEntity
  8
0
100
AcDbText
 10
0.0
 20
0.0
 30
0.0
 40
1.0
  1
jernberg
100
AcDbAttribute
280
     0
  2
andrad_av
 70
     1
280
     0
  0
ATTRIB
  5
28B
330
282
100
AcDbEntity
  8
0
100
AcDbText
 10
0.0
 20
0.0
 30
0.0
 40
1.0
  1

100
AcDbAttribute
280
     0
  2
id_gammalt
 70
     1
280
     0
  0
ATTRIB
  5
28C
330
282
100
AcDbEntity
  8
0
100
AcDbText
 10
0.0
 20
0.0
 30
0.0
 40
1.0
  1
{15562EC5-2A56-4A62-821C-F36B6E4ED856}
100
AcDbAttribute
280
     0
  2
lokalid
 70
     1
280
     0
  0
ATTRIB
  5
28D
330
282
100
AcDbEntity
  8
0
100
AcDbText
 10
0.0
 20
0.0
 30
0.0
 40
1.0
  1
Bostad
100
AcDbAttribute
280
     0
  2
detaljtyp_Text
 70
     1
280
     0
  0
SEQEND
  5
28E
330
282
100
AcDbEntity
  8
Byggnadskartografilinje
  0
INSERT
  5
2A3
330
1F
100
AcDbEntity
  8
Bostad
100
AcDbBlockReference
 66
     1
  2
16
 10
0.0
 20
0.0
 30
0.0
  0
ATTRIB
  5
2A4
330
2A3
100
AcDbEntity
  8
0
100
AcDbText
 10
0.0
 20
0.0
 30
0.0
 40
1.0
  1
47009
100
AcDbAttribute
280
     0
  2
databas_id
 70
     1
280
     0
  0
ATTRIB
  5
2A5
330
2A3
100
AcDbEntity
  8
0
100
AcDbText
 10
0.0
 20
0.0
 30
0.0
 40
1.0
  1
1201010
100
AcDbAttribute
280
     0
  2
typ
 70
     1
280
     0
  0
ATTRIB
  5
2A6
330
2A3
100
AcDbEntity
  8
0
100
AcDbText
 10
0.0
 20
0.0
 30
0.0
 40
1.0
  1
120101010
100
AcDbAttribute
280
     0
  2
detaljtyp
 70
     1
280
     0
  0
ATTRIB
  5
2A7
330
2A3
100
AcDbEntity
  8
0
100
AcDbText
 10
0.0
 20
0.0
 30
0.0
 40
1.0
  1

100
AcDbAttribute
280
     0
  2
husnummer
 70
     1
280
     0
  0
ATTRIB
  5
2A8
330
2A3
100
AcDbEntity
  8
0
100
AcDbText
 10
0.0
 20
0.0
 30
0.0
 40
1.0
  1
12016
100
AcDbAttribute
280
     0
  2
byggnadsstatus
 70
     1
280
     0
  0
ATTRIB
  5
2A9
330
2A3
100
AcDbEntity
  8
0
100
AcDbText
 10
0.0
 20
0.0
 30
0.0
 40
1.0
  1

100
AcDbAttribute
280
     0
  2
byggnadsuuid
 70
     1
280
     0
  0
ATTRIB
  5
2AA
330
2A3
100
AcDbEntity
  8
0
100
AcDbText
 10
0.0
 20
0.0
 30
0.0
 40
1.0
  1
12020
100
AcDbAttribute
280
     0
  2
matlage_byggnad
 70
     1
280
     0
  0
ATTRIB
  5
2AB
330
2A3
100
AcDbEntity
  8
0
100
AcDbText
 10
0.0
 20
0.0
 30
0.0
 40
1.0
  1
11333
100
AcDbAttribute
280
     0
  2
marklage
 70
     1
280
     0
  0
ATTRIB
  5
2AC
330
2A3
100
AcDbEntity
  8
0
100
AcDbText
 10
0.0
 20
0.0
 30
0.0
 40
1.0
  1

100
AcDbAttribute
280
     0
  2
fnr_lm
 70
     1
280
     0
  0
ATTRIB
  5
2AD
330
2A3
100
AcDbEntity
  8
0
100
AcDbText
 10
0.0
 20
0.0
 30
0.0
 40
1.0
  1

100
AcDbAttribute
280
     0
  2
fnr_kommun
 70
     1
280
     0
  0
ATTRIB
  5
2AE
330
2A3
100
AcDbEntity
  8
0
100
AcDbText
 10
0.0
 20
0.0
 30
0.0
 40
1.0
  1

100
AcDbAttribute
280
     0
  2
namn
 70
     1
280
     0
  0
ATTRIB
  5
2AF
330
2A3
100
AcDbEntity
  8
0
100
AcDbText
 10
0.0
 20
0.0
 30
0.0
 40
1.0
  1
SH: +18,3
100
AcDbAttribute
280
     0
  2
kommentar
 70
     1
280
     0
  0
ATTRIB
  5
2B0
330
2A3
100
AcDbEntity
  8
0
100
AcDbText
 10
0.0
 20
0.0
 30
0.0
 40
1.0
  1
40
100
AcDbAttribute
280
     0
  2
lagesosakerhet_plan
 70
     1
280
     0
  0
ATTRIB
  5
2B1
330
2A3
100
AcDbEntity
  8
0
100
AcDbText
 10
0.0
 20
0.0
 30
0.0
 40
1.0
  1
60
100
AcDbAttribute
280
     0
  2
lagesosakerhet_hojd
 70
     1
280
     0
  0
ATTRIB
  5
2B2
330
2A3
100
AcDbEntity
  8
0
100
AcDbText
 10
0.0
 20
0.0
 30
0.0
 40
1.0
  1

100
AcDbAttribute
280
     0
  2
organisation_plan
 70
     1
280
     0
  0
ATTRIB
  5
2B3
330
2A3
100
AcDbEntity
  8
0
100
AcDbText
 10
0.0
 20
0.0
 30
0.0
 40
1.0
  1

100
AcDbAttribute
280
     0
  2
organisation_hojd
 70
     1
280
     0
  0
ATTRIB
  5
2B4
330
2A3
100
AcDbEntity
  8
0
100
AcDbText
 10
0.0
 20
0.0
 30
0.0
 40
1.0
  1
811
100
AcDbAttribute
280
     0
  2
insamlingsmetod_plan
 70
     1
280
     0
  0
ATTRIB
  5
2B5
330
2A3
100
AcDbEntity
  8
0
100
AcDbText
 10
0.0
 20
0.0
 30
0.0
 40
1.0
  1
811
100
AcDbAttribute
280
     0
  2
insamlingsmetod_hojd
 70
     1
280
     0
  0
ATTRIB
  5
2B6
330
2A3
100
AcDbEntity
  8
0
100
AcDbText
 10
0.0
 20
0.0
 30
0.0
 40
1.0
  1
0181
100
AcDbAttribute
280
     0
  2
kommunkod
 70
     1
280
     0
  0
ATTRIB
  5
2B7
330
2A3
100
AcDbEntity
  8
0
100
AcDbText
 10
0.0
 20
0.0
 30
0.0
 40
1.0
  1
2017-11-27 17:26:53
100
AcDbAttribute
280
     0
  2
skapad_tid
 70
     1
280
     0
  0
ATTRIB
  5
2B8
330
2A3
100
AcDbEntity
  8
0
100
AcDbText
 10
0.0
 20
0.0
 30
0.0
 40
1.0
  1
jernberg
100
AcDbAttribute
280
     0
  2
skapad_av
 70
     1
280
     0
  0
ATTRIB
  5
2B9
330
2A3
100
AcDbEntity
  8
0
100
AcDbText
 10
0.0
 20
0.0
 30
0.0
 40
1.0
  1
2017-11-28 10:21:07
100
AcDbAttribute
280
     0
  2
andrad_tid
 70
     1
280
     0
  0
ATTRIB
  5
2BA
330
2A3
100
AcDbEntity
  8
0
100
AcDbText
 10
0.0
 20
0.0
 30
0.0
 40
1.0
  1
jernberg
100
AcDbAttribute
280
     0
  2
andrad_av
 70
     1
280
     0
  0
ATTRIB
  5
2BB
330
2A3
100
AcDbEntity
  8
0
100
AcDbText
 10
0.0
 20
0.0
 30
0.0
 40
1.0
  1

100
AcDbAttribute
280
     0
  2
id_gammalt
 70
     1
280
     0
  0
ATTRIB
  5
2BC
330
2A3
100
AcDbEntity
  8
0
100
AcDbText
 10
0.0
 20
0.0
 30
0.0
 40
1.0
  1

100
AcDbAttribute
280
     0
  2
konvert_id
 70
     1
280
     0
  0
ATTRIB
  5
2BD
330
2A3
100
AcDbEntity
  8
0
100
AcDbText
 10
0.0
 20
0.0
 30
0.0
 40
1.0
  1

100
AcDbAttribute
280
     0
  2
cad_maner
 70
     1
280
     0
  0
ATTRIB
  5
2BE
330
2A3
100
AcDbEntity
  8
0
100
AcDbText
 10
0.0
 20
0.0
 30
0.0
 40
1.0
  1

100
AcDbAttribute
280
     0
  2
MI_STYLE
 70
     1
280
     0
  0
ATTRIB
  5
2BF
330
2A3
100
AcDbEntity
  8
0
100
AcDbText
 10
0.0
 20
0.0
 30
0.0
 40
1.0
  1
{026D1DBB-CCC8-4D8D-8565-29BEFDA38C5D}
100
AcDbAttribute
280
     0
  2
lokalid
 70
     1
280
     0
  0
ATTRIB
  5
2C0
330
2A3
100
AcDbEntity
  8
0
100
AcDbText
 10
0.0
 20
0.0
 30
0.0
 40
1.0
  1
Gällande
100
AcDbAttribute
280
     0
  2
byggnadsstatus_Text
 70
     1
280
     0
  0
ATTRIB
  5
2C1
330
2A3
100
AcDbEntity
  8
0
100
AcDbText
 10
0.0
 20
0.0
 30
0.0
 40
1.0
  1
Bostad _ Småhus friliggande
100
AcDbAttribute
280
     0
  2
detaljtyp_Text
 70
     1
280
     0
  0
ATTRIB
  5
2C2
330
2A3
100
AcDbEntity
  8
0
100
AcDbText
 10
0.0
 20
0.0
 30
0.0
 40
1.0
  1
Geodetiskt - GNSS nätverks-RTK
100
AcDbAttribute
280
     0
  2
insamlingsmetod_hojd_Text
 70
     1
280
     0
  0
ATTRIB
  5
2C3
330
2A3
100
AcDbEntity
  8
0
100
AcDbText
 10
0.0
 20
0.0
 30
0.0
 40
1.0
  1
Geodetiskt - GNSS nätverks-RTK
100
AcDbAttribute
280
     0
  2
insamlingsmetod_plan_Text
 70
     1
280
     0
  0
ATTRIB
  5
2C4
330
2A3
100
AcDbEntity
  8
0
100
AcDbText
 10
0.0
 20
0.0
 30
0.0
 40
1.0
  1
     60 mm
100
AcDbAttribute
280
     0
  2
lagesosakerhet_hojd_Text
 70
     1
280
     0
  0
ATTRIB
  5
2C5
330
2A3
100
AcDbEntity
  8
0
100
AcDbText
 10
0.0
 20
0.0
 30
0.0
 40
1.0
  1
     40 mm
100
AcDbAttribute
280
     0
  2
lagesosakerhet_plan_Text
 70
     1
280
     0
  0
ATTRIB
  5
2C6
330
2A3
100
AcDbEntity
  8
0
100
AcDbText
 10
0.0
 20
0.0
 30
0.0
 40
1.0
  1
Ovan mark
100
AcDbAttribute
280
     0
  2
marklage_Text
 70
     1
280
     0
  0
ATTRIB
  5
2C7
330
2A3
100
AcDbEntity
  8
0
100
AcDbText
 10
0.0
 20
0.0
 30
0.0
 40
1.0
  1
Husliv
100
AcDbAttribute
280
     0
  2
matlage_byggnad_Text
 70
     1
280
     0
  0
ATTRIB
  5
2C8
330
2A3
100
AcDbEntity
  8
0
100
AcDbText
 10
0.0
 20
0.0
 30
0.0
 40
1.0
  1
Bostad
100
AcDbAttribute
280
     0
  2
typ_Text
 70
     1
280
     0
  0
SEQEND
  5
2C9
330
2A3
100
AcDbEntity
  8
Bostad
  0
ENDSEC
  0
SECTION
  2
OBJECTS
  0
DICTIONARY
  5
C
330
0
100
AcDbDictionary
281
     1
  3
ACAD_CIP_PREVIOUS_PRODUCT_INFO
350
2DE
  3
ACAD_COLOR
350
2D3
  3
ACAD_DETAILVIEWSTYLE
350
2CE
  3
ACAD_GROUP
350
D
  3
ACAD_LAYOUT
350
1A
  3
ACAD_MATERIAL
350
43
  3
ACAD_MLEADERSTYLE
350
6B
  3
ACAD_MLINESTYLE
350
17
  3
ACAD_PLOTSETTINGS
350
19
  3
ACAD_PLOTSTYLENAME
350
E
  3
ACAD_SCALELIST
350
47
  3
ACAD_SECTIONVIEWSTYLE
350
2CF
  3
ACAD_TABLESTYLE
350
69
  3
ACAD_VISUALSTYLE
350
2A
  3
ACDB_RECOMPOSE_DATA
350
31A
  3
AcDbVariableDictionary
350
2CA
  3
ADE_QUERY_LIBRARY
350
2F0
  3
ASE_INDEX_DICTIONARY
350
2F3
  3
Autodesk_MAP
350
2D7
1001
ADE
1000
ADE02C004
1000
[Query]
1000
CaseSensitiveMatch=0
1000
SaveCurrQueryInSession=1
1000
MkSelSetWithQryObj=0
1000
ShowBlockAsInsPt=0
1000
CreateAssociativeHatchObjects=0
1000
ReferenceBoundaryForAreaLocation=1
1000
ShowImageAsBoundary=1
1000
DefaultJoinOperator=2
1000
ColorForAdd=red
1000
ColorForRemove=red
1000
BlockLocnForQuery=1
1000
TextLocnForQuery=1
1000
IncludeAllObjectsInGroups=0
1000
AlwaysUseLibraryDefinitions=0
1000
PreviewDefinitionsFrom=2
1000
[Save Back]
1000
RedefineBlockDefinitions=1
1000
RedefineLayerDefinitions=1
1000
RedefineTextStyleDefinitions=1
1000
RemoveUnusedGroups=1
1000
EraseSavedBackObjects=1
1000
RemoveLockAfterSave=1
1000
CreateHistoryFileOfChanges=0
1000
CreateBackupFileOfSourceDwg=1
1000
DontAddObjectsToSaveSet=0
1000
MarkObjectsForEditingWithoutPrompting=0
1000
FdoDontAddObjsToSvSet=0
1000
FdoEditWithoutPrompt=1
1000
FdoRemUnusedGrps=1
1000
FdoEraseSvdBkObjs=1
1000
FdoRemoveLockOnSave=1
1000
FdoTesselationMaxPointsDistance=0
1000
FdoTesselationMaxCurvesDistance=0
1000
[Coordinate Transformation]
1000
RestoreLastActiveDwgsOnStartup=1
1000
ActivateDwgsOnAttach=1
1000
AdjustSizesAndScalesForChangesInUnits=1
1000
AdjustRotationsForMapDistortions=1
1000
AdjustSizesAndScalesForMapDistortions=1
1000
AdjustElevations=1
1000
AdjustZeroRotationObjects=1
1000
ReconnectDbOnWSOpen=1
1000
NoOfSQLConditionsInHistory=10
  0
SUN
  5
6D
330
29
100
AcDbSun
 90
        1
290
     0
 63
     7
421
 16777215
 40
1.0
291
     1
 91
  2455826
 92
 54000000
292
     0
 70
     0
 71
   256
280
     1
  0
DICTIONARY
  5
2FA
330
2
100
AcDbDictionary
280
     1
281
     1
  3
ACAD_LAYERSTATES
360
2FB
  0
DICTIONARY
  5
2EA
330
1F
100
AcDbDictionary
280
     1
281
     1
  3
ACAD_SORTENTS
360
2EB
  0
XRECORD
  5
2DE
102
{ACAD_REACTORS
330
C
102
}
330
C
100
AcDbXrecord
280
     1
300
MAP
300
2016
300
86517MAP_2016_0F
  0
DICTIONARY
  5
2D3
102
{ACAD_REACTORS
330
C
102
}
330
C
100
AcDbDictionary
281
     1
  0
DICTIONARY
  5
2CE
102
{ACAD_REACTORS
330
C
102
}
330
C
100
AcDbDictionary
281
     1
  3
Metric50
350
2D5
  0
DICTIONARY
  5
D
102
{ACAD_REACTORS
330
C
102
}
330
C
100
AcDbDictionary
281
     1
  0
DICTIONARY
  5
1A
102
{ACAD_REACTORS
330
C
102
}
330
C
100
AcDbDictionary
281
     1
  3
Layout1
350
1E
  3
Layout2
350
26
  3
Model
350
22
  0
DICTIONARY
  5
43
102
{ACAD_REACTORS
330
C
102
}
330
C
100
AcDbDictionary
281
     1
  3
ByBlock
350
45
  3
ByLayer
350
44
  3
Global
350
46
  0
DICTIONARY
  5
6B
102
{ACAD_REACTORS
330
C
102
}
330
C
100
AcDbDictionary
281
     1
  3
Standard
350
6C
  0
DICTIONARY
  5
17
102
{ACAD_REACTORS
330
C
102
}
330
C
100
AcDbDictionary
281
     1
  3
Standard
350
18
  0
DICTIONARY
  5
19
102
{ACAD_REACTORS
330
C
102
}
330
C
100
AcDbDictionary
281
     1
  0
ACDBDICTIONARYWDFLT
  5
E
102
{ACAD_REACTORS
330
C
102
}
330
C
100
AcDbDictionary
281
     1
  3
Normal
350
F
100
AcDbDictionaryWithDefault
340
F
  0
DICTIONARY
  5
47
102
{ACAD_REACTORS
330
C
102
}
330
C
100
AcDbDictionary
281
     1
  3
A0
350
48
  3
A1
350
49
  3
A2
350
4A
  3
A3
350
4B
  3
A4
350
4C
  3
A5
350
4D
  3
A6
350
4E
  3
A7
350
4F
  3
A8
350
50
  3
A9
350
51
  3
B0
350
52
  3
B1
350
53
  3
B2
350
54
  3
B3
350
55
  3
B4
350
56
  3
B5
350
57
  3
B6
350
58
  3
B7
350
59
  3
B8
350
5A
  3
B9
350
5B
  3
C0
350
5C
  3
C1
350
5D
  3
C2
350
5E
  3
C3
350
5F
  3
C4
350
60
  3
C5
350
61
  3
C6
350
62
  3
C7
350
63
  3
C8
350
64
  3
C9
350
65
  3
D0
350
66
  3
D1
350
67
  3
D2
350
68
  0
DICTIONARY
  5
2CF
102
{ACAD_REACTORS
330
C
102
}
330
C
100
AcDbDictionary
281
     1
  3
Metric50
350
2D4
  0
DICTIONARY
  5
69
102
{ACAD_REACTORS
330
C
102
}
330
C
100
AcDbDictionary
281
     1
  3
Legend
350
2E3
  3
Standard
350
6A
  0
DICTIONARY
  5
2A
102
{ACAD_REACTORS
330
C
102
}
330
C
100
AcDbDictionary
281
     1
  3
2dWireframe
350
2F
  3
Basic
350
32
  3
Brighten
350
36
  3
ColorChange
350
3A
  3
Conceptual
350
34
  3
Dim
350
35
  3
EdgeColorOff
350
3D
  3
Facepattern
350
39
  3
Flat
350
2B
  3
FlatWithEdges
350
2C
  3
Gouraud
350
2D
  3
GouraudWithEdges
350
2E
  3
Hidden
350
31
  3
JitterOff
350
3B
  3
Linepattern
350
38
  3
OverhangOff
350
3C
  3
Realistic
350
33
  3
Shaded
350
42
  3
Shaded with edges
350
41
  3
Shades of Gray
350
3E
  3
Sketchy
350
3F
  3
Thicken
350
37
  3
Wireframe
350
30
  3
X-Ray
350
40
  0
XRECORD
  5
31A
102
{ACAD_REACTORS
330
C
102
}
330
C
100
AcDbXrecord
280
     1
 90
        1
330
6A
330
2D4
330
2D5
330
2E3
  0
DICTIONARY
  5
2CA
102
{ACAD_REACTORS
330
C
102
}
330
C
100
AcDbDictionary
281
     1
  3
CANNOSCALE
350
2CB
  3
CENTEREXE
350
2D0
  3
CENTERLTYPEFILE
350
2D1
  3
CMLEADERSTYLE
350
2CD
  3
CTABLESTYLE
350
2CC
  3
CVIEWDETAILSTYLE
350
310
  3
CVIEWSECTIONSTYLE
350
311
  0
DICTIONARY
  5
2F0
102
{ACAD_REACTORS
330
C
102
}
330
C
100
AcDbDictionary
281
     1
  3
_CurrQry
350
30F
  0
DICTIONARY
  5
2F3
102
{ACAD_REACTORS
330
C
102
}
330
C
100
AcDbDictionary
281
     1
  3
ASEBlockHierarchyIndexRecord
350
2F5
1001
DCO15
1040
1956129513.247
  0
DICTIONARY
  5
2D7
102
{ACAD_REACTORS
330
C
102
}
330
C
100
AcDbDictionary
281
     1
  3
AcMapDMStylizedEntities
350
2EC
  3
AcMapResourceManager
350
2DF
  3
MAP_DISPLAY_CUSTOMOBJ_REG_TABLE
350
2DB
  3
MAP_DISPLAY_MANAGEMENT_DICTIONARY
350
2D8
  3
MAP_DISPLAY_STYLELIBRARY_DICTIONARY
350
2D9
  3
MAP_RESOURCE_VERSION_MANAGEMENT_DICTIONARY
350
2EE
1001
MapGWS
1000
C:\ProgramData\Autodesk\Autodesk AutoCAD Map 3D 2016\R20.1\MapCache\exempel-2_lageskontrollintygGWS1542720217.xml
  0
DICTIONARY
  5
2FB
102
{ACAD_REACTORS
330
2FA
102
}
330
2FA
100
AcDbDictionary
281
     1
  0
SORTENTSTABLE
  5
2EB
102
{ACAD_REACTORS
330
2EA
102
}
330
2EA
100
AcDbSortentsTable
330
1F
  0
ACDBDETAILVIEWSTYLE
  5
2D5
102
{ACAD_XDICTIONARY
360
316
102
}
102
{ACAD_REACTORS
330
2CE
102
}
330
2CE
100
AcDbModelDocViewStyle
 70
     0
  3
Metric50
290
     0
100
AcDbDetailViewStyle
 70
     0
 71
     0
 90
        3
 71
     1
340
11
 62
   256
 40
5.0
340
0
 62
   256
 40
5.0
300

 40
0.0
280
     1
 71
     2
340
16
 90
       25
 62
   256
 71
     3
340
11
 62
   256
 40
5.0
 90
        0
 40
15.0
 90
        1
300
%<\AcVar ViewDetailId>% (%<\AcVar ViewScale \f "%sn">%)
 71
     4
340
16
 90
       25
 62
   256
340
16
 90
       25
 62
   256
280
     0
  0
LAYOUT
  5
1E
102
{ACAD_REACTORS
330
1A
102
}
330
1A
100
AcDbPlotSettings
  1

  2
none_device
  4

  6

 40
0.0
 41
0.0
 42
0.0
 43
0.0
 44
0.0
 45
0.0
 46
0.0
 47
0.0
 48
0.0
 49
0.0
140
0.0
141
0.0
142
1.0
143
1.0
 70
   688
 72
     1
 73
     0
 74
     5
  7

 75
    16
147
1.0
 76
     0
 77
     2
 78
   300
148
0.0
149
0.0
100
AcDbLayout
  1
Layout1
 70
     1
 71
     1
 10
0.0
 20
0.0
 11
420.0
 21
297.0
 12
0.0
 22
0.0
 32
0.0
 14
1.000000000000000E+20
 24
1.000000000000000E+20
 34
1.000000000000000E+20
 15
-1.000000000000000E+20
 25
-1.000000000000000E+20
 35
-1.000000000000000E+20
146
0.0
 13
0.0
 23
0.0
 33
0.0
 16
1.0
 26
0.0
 36
0.0
 17
0.0
 27
1.0
 37
0.0
 76
     0
330
1B
  0
LAYOUT
  5
26
102
{ACAD_REACTORS
330
1A
102
}
330
1A
100
AcDbPlotSettings
  1

  2
none_device
  4

  6

 40
0.0
 41
0.0
 42
0.0
 43
0.0
 44
0.0
 45
0.0
 46
0.0
 47
0.0
 48
0.0
 49
0.0
140
0.0
141
0.0
142
1.0
143
1.0
 70
   688
 72
     1
 73
     0
 74
     5
  7

 75
    16
147
1.0
 76
     0
 77
     2
 78
   300
148
0.0
149
0.0
100
AcDbLayout
  1
Layout2
 70
     1
 71
     2
 10
0.0
 20
0.0
 11
0.0
 21
0.0
 12
0.0
 22
0.0
 32
0.0
 14
0.0
 24
0.0
 34
0.0
 15
0.0
 25
0.0
 35
0.0
146
0.0
 13
0.0
 23
0.0
 33
0.0
 16
1.0
 26
0.0
 36
0.0
 17
0.0
 27
1.0
 37
0.0
 76
     0
330
23
  0
LAYOUT
  5
22
102
{ACAD_REACTORS
330
1A
102
}
330
1A
100
AcDbPlotSettings
  1

  2
none_device
  4
Letter_(8.50_x_11.00_Inches)
  6

 40
6.349999999999999
 41
6.349999999999999
 42
6.350005079999999
 43
6.350005079999999
 44
215.9
 45
279.4
 46
0.0
 47
0.0
 48
0.0
 49
0.0
140
0.0
141
0.0
142
1.0
143
1.0
 70
  1712
 72
     1
 73
     0
 74
     0
  7

 75
     0
147
1.0
 76
     0
 77
     2
 78
   300
148
0.0
149
0.0
100
AcDbLayout
  1
Model
 70
     1
 71
     0
 10
0.0
 20
0.0
 11
420.0
 21
297.0
 12
0.0
 22
0.0
 32
0.0
 14
1.000000000000000E+20
 24
1.000000000000000E+20
 34
1.000000000000000E+20
 15
-1.000000000000000E+20
 25
-1.000000000000000E+20
 35
-1.000000000000000E+20
146
0.0
 13
0.0
 23
0.0
 33
0.0
 16
1.0
 26
0.0
 36
0.0
 17
0.0
 27
1.0
 37
0.0
 76
     0
330
1F
331
29
  0
MATERIAL
  5
45
102
{ACAD_REACTORS
330
43
102
}
330
43
100
AcDbMaterial
  1
ByBlock
 73
     1
 78
     1
172
     1
176
     1
270
     1
274
     1
  0
MATERIAL
  5
44
102
{ACAD_REACTORS
330
43
102
}
330
43
100
AcDbMaterial
  1
ByLayer
 73
     1
 78
     1
172
     1
176
     1
270
     1
274
     1
  0
MATERIAL
  5
46
102
{ACAD_REACTORS
330
43
102
}
330
43
100
AcDbMaterial
  1
Global
 73
     1
 78
     1
172
     1
176
     1
270
     1
274
     1
  0
MLEADERSTYLE
  5
6C
102
{ACAD_REACTORS
330
6B
102
}
330
6B
100
AcDbMLeaderStyle
179
     2
170
     2
171
     1
172
     0
 90
        2
 40
0.0
 41
0.0
173
     1
 91
-1056964608
340
14
 92
       -2
290
     1
 42
2.0
291
     1
 43
8.0
  3
Standard
 44
4.0
300

342
11
174
     1
178
     6
175
     1
176
     0
 93
-1056964608
 45
4.0
292
     0
297
     0
 46
4.0
 94
-1056964608
 47
1.0
 49
1.0
140
1.0
293
     1
141
0.0
294
     1
177
     0
142
1.0
295
     0
296
     0
143
3.75
271
     0
272
     9
273
     9
298
     0
  0
MLINESTYLE
  5
18
102
{ACAD_REACTORS
330
17
102
}
330
17
100
AcDbMlineStyle
  2
STANDARD
 70
     0
  3

 62
   256
 51
90.0
 52
90.0
 71
     2
 49
0.5
 62
   256
  6
BYLAYER
 49
-0.5
 62
   256
  6
BYLAYER
  0
ACDBPLACEHOLDER
  5
F
102
{ACAD_REACTORS
330
E
102
}
330
E
  0
SCALE
  5
48
102
{ACAD_REACTORS
330
47
102
}
330
47
100
AcDbScale
 70
     0
300
1:1
140
1.0
141
1.0
290
     1
  0
SCALE
  5
49
102
{ACAD_REACTORS
330
47
102
}
330
47
100
AcDbScale
 70
     0
300
1:2
140
1.0
141
2.0
290
     0
  0
SCALE
  5
4A
102
{ACAD_REACTORS
330
47
102
}
330
47
100
AcDbScale
 70
     0
300
1:4
140
1.0
141
4.0
290
     0
  0
SCALE
  5
4B
102
{ACAD_REACTORS
330
47
102
}
330
47
100
AcDbScale
 70
     0
300
1:5
140
1.0
141
5.0
290
     0
  0
SCALE
  5
4C
102
{ACAD_REACTORS
330
47
102
}
330
47
100
AcDbScale
 70
     0
300
1:8
140
1.0
141
8.0
290
     0
  0
SCALE
  5
4D
102
{ACAD_REACTORS
330
47
102
}
330
47
100
AcDbScale
 70
     0
300
1:10
140
1.0
141
10.0
290
     0
  0
SCALE
  5
4E
102
{ACAD_REACTORS
330
47
102
}
330
47
100
AcDbScale
 70
     0
300
1:16
140
1.0
141
16.0
290
     0
  0
SCALE
  5
4F
102
{ACAD_REACTORS
330
47
102
}
330
47
100
AcDbScale
 70
     0
300
1:20
140
1.0
141
20.0
290
     0
  0
SCALE
  5
50
102
{ACAD_REACTORS
330
47
102
}
330
47
100
AcDbScale
 70
     0
300
1:30
140
1.0
141
30.0
290
     0
  0
SCALE
  5
51
102
{ACAD_REACTORS
330
47
102
}
330
47
100
AcDbScale
 70
     0
300
1:40
140
1.0
141
40.0
290
     0
  0
SCALE
  5
52
102
{ACAD_REACTORS
330
47
102
}
330
47
100
AcDbScale
 70
     0
300
1:50
140
1.0
141
50.0
290
     0
  0
SCALE
  5
53
102
{ACAD_REACTORS
330
47
102
}
330
47
100
AcDbScale
 70
     0
300
1:100
140
1.0
141
100.0
290
     0
  0
SCALE
  5
54
102
{ACAD_REACTORS
330
47
102
}
330
47
100
AcDbScale
 70
     0
300
2:1
140
2.0
141
1.0
290
     0
  0
SCALE
  5
55
102
{ACAD_REACTORS
330
47
102
}
330
47
100
AcDbScale
 70
     0
300
4:1
140
4.0
141
1.0
290
     0
  0
SCALE
  5
56
102
{ACAD_REACTORS
330
47
102
}
330
47
100
AcDbScale
 70
     0
300
8:1
140
8.0
141
1.0
290
     0
  0
SCALE
  5
57
102
{ACAD_REACTORS
330
47
102
}
330
47
100
AcDbScale
 70
     0
300
10:1
140
10.0
141
1.0
290
     0
  0
SCALE
  5
58
102
{ACAD_REACTORS
330
47
102
}
330
47
100
AcDbScale
 70
     0
300
100:1
140
100.0
141
1.0
290
     0
  0
SCALE
  5
59
102
{ACAD_REACTORS
330
47
102
}
330
47
100
AcDbScale
 70
     0
300
1/128" = 1'-0"
140
0.0078125
141
12.0
290
     0
  0
SCALE
  5
5A
102
{ACAD_REACTORS
330
47
102
}
330
47
100
AcDbScale
 70
     0
300
1/64" = 1'-0"
140
0.015625
141
12.0
290
     0
  0
SCALE
  5
5B
102
{ACAD_REACTORS
330
47
102
}
330
47
100
AcDbScale
 70
     0
300
1/32" = 1'-0"
140
0.03125
141
12.0
290
     0
  0
SCALE
  5
5C
102
{ACAD_REACTORS
330
47
102
}
330
47
100
AcDbScale
 70
     0
300
1/16" = 1'-0"
140
0.0625
141
12.0
290
     0
  0
SCALE
  5
5D
102
{ACAD_REACTORS
330
47
102
}
330
47
100
AcDbScale
 70
     0
300
3/32" = 1'-0"
140
0.09375
141
12.0
290
     0
  0
SCALE
  5
5E
102
{ACAD_REACTORS
330
47
102
}
330
47
100
AcDbScale
 70
     0
300
1/8" = 1'-0"
140
0.125
141
12.0
290
     0
  0
SCALE
  5
5F
102
{ACAD_REACTORS
330
47
102
}
330
47
100
AcDbScale
 70
     0
300
3/16" = 1'-0"
140
0.1875
141
12.0
290
     0
  0
SCALE
  5
60
102
{ACAD_REACTORS
330
47
102
}
330
47
100
AcDbScale
 70
     0
300
1/4" = 1'-0"
140
0.25
141
12.0
290
     0
  0
SCALE
  5
61
102
{ACAD_REACTORS
330
47
102
}
330
47
100
AcDbScale
 70
     0
300
3/8" = 1'-0"
140
0.375
141
12.0
290
     0
  0
SCALE
  5
62
102
{ACAD_REACTORS
330
47
102
}
330
47
100
AcDbScale
 70
     0
300
1/2" = 1'-0"
140
0.5
141
12.0
290
     0
  0
SCALE
  5
63
102
{ACAD_REACTORS
330
47
102
}
330
47
100
AcDbScale
 70
     0
300
3/4" = 1'-0"
140
0.75
141
12.0
290
     0
  0
SCALE
  5
64
102
{ACAD_REACTORS
330
47
102
}
330
47
100
AcDbScale
 70
     0
300
1" = 1'-0"
140
1.0
141
12.0
290
     0
  0
SCALE
  5
65
102
{ACAD_REACTORS
330
47
102
}
330
47
100
AcDbScale
 70
     0
300
1-1/2" = 1'-0"
140
1.5
141
12.0
290
     0
  0
SCALE
  5
66
102
{ACAD_REACTORS
330
47
102
}
330
47
100
AcDbScale
 70
     0
300
3" = 1'-0"
140
3.0
141
12.0
290
     0
  0
SCALE
  5
67
102
{ACAD_REACTORS
330
47
102
}
330
47
100
AcDbScale
 70
     0
300
6" = 1'-0"
140
6.0
141
12.0
290
     0
  0
SCALE
  5
68
102
{ACAD_REACTORS
330
47
102
}
330
47
100
AcDbScale
 70
     0
300
1'-0" = 1'-0"
140
12.0
141
12.0
290
     0
  0
ACDBSECTIONVIEWSTYLE
  5
2D4
102
{ACAD_XDICTIONARY
360
314
102
}
102
{ACAD_REACTORS
330
2CF
102
}
330
2CF
100
AcDbModelDocViewStyle
 70
     0
  3
Metric50
290
     0
100
AcDbSectionViewStyle
 70
     0
 71
     0
 90
      102
 71
     1
340
11
 62
   256
 40
5.0
340
0
340
0
 62
   256
 40
5.0
300
I, O, Q, S, X, Z
 40
10.0
 90
        0
 40
2.5
 90
        0
 71
     2
340
16
 90
       25
 62
   256
340
16
 90
       50
 62
   256
 40
5.0
 40
2.5
 40
5.0
 71
     3
340
11
 62
   256
 40
5.0
 90
        0
 40
15.0
 90
        1
300
%<\AcVar ViewSectionStartId>%-%<\AcVar ViewSectionEndId>% (%<\AcVar ViewScale \f "%sn">%)
 71
     4
 62
   256
 62
   257
300
ANSI31
 40
1.0
 90
        0
290
     0
290
     0
 90
        6
 40
0.0
 40
1.570796326794896
 40
0.2617993877991494
 40
1.308996938995747
 40
-0.2617993877991494
 40
1.832595714594046
  0
TABLESTYLE
  5
2E3
102
{ACAD_XDICTIONARY
360
318
102
}
102
{ACAD_REACTORS
330
69
102
}
330
69
100
AcDbTableStyle
280
     0
  3

 70
     0
 71
     3
 40
1.5
 41
1.5
280
     0
281
     1
  7
Legend
140
4.5
170
     4
 62
     0
 63
     7
283
     0
 90
      512
 91
        0
  1

274
    -2
284
     0
 64
     0
275
    -2
285
     0
 65
     0
276
    -2
286
     0
 66
     0
277
    -2
287
     0
 67
     0
278
    -2
288
     0
 68
     0
279
    -2
289
     0
 69
     0
  7
Legend
140
6.0
170
     5
 62
     0
 63
     7
283
     0
 90
      512
 91
        0
  1

274
    -2
284
     0
 64
     0
275
    -2
285
     0
 65
     0
276
    -2
286
     0
 66
     0
277
    -2
287
     0
 67
     0
278
    -2
288
     0
 68
     0
279
    -2
289
     0
 69
     0
  7
Legend
140
4.5
170
     4
 62
     0
 63
     7
283
     0
 90
      512
 91
        0
  1

274
    -2
284
     0
 64
     0
275
    -2
285
     0
 65
     0
276
    -2
286
     0
 66
     0
277
    -2
287
     0
 67
     0
278
    -2
288
     0
 68
     0
279
    -2
289
     0
 69
     0
  0
TABLESTYLE
  5
6A
102
{ACAD_XDICTIONARY
360
312
102
}
102
{ACAD_REACTORS
330
69
102
}
330
69
100
AcDbTableStyle
280
     0
  3
Standard
 70
     0
 71
     0
 40
1.5
 41
1.5
280
     0
281
     0
  7
Standard
140
4.5
170
     2
 62
     0
 63
     7
283
     0
 90
        4
 91
        0
  1

274
    -2
284
     1
 64
     0
275
    -2
285
     1
 65
     0
276
    -2
286
     1
 66
     0
277
    -2
287
     1
 67
     0
278
    -2
288
     1
 68
     0
279
    -2
289
     1
 69
     0
  7
Standard
140
6.0
170
     5
 62
     0
 63
     7
283
     0
 90
        4
 91
        0
  1

274
    -2
284
     1
 64
     0
275
    -2
285
     1
 65
     0
276
    -2
286
     1
 66
     0
277
    -2
287
     1
 67
     0
278
    -2
288
     1
 68
     0
279
    -2
289
     1
 69
     0
  7
Standard
140
4.5
170
     5
 62
     0
 63
     7
283
     0
 90
        4
 91
        0
  1

274
    -2
284
     1
 64
     0
275
    -2
285
     1
 65
     0
276
    -2
286
     1
 66
     0
277
    -2
287
     1
 67
     0
278
    -2
288
     1
 68
     0
279
    -2
289
     1
 69
     0
  0
VISUALSTYLE
  5
2F
102
{ACAD_REACTORS
330
2A
102
}
330
2A
100
AcDbVisualStyle
  2
2dWireframe
 70
     4
177
     3
291
     0
 70
    58
 90
        0
176
     1
 90
        2
176
     1
 90
        0
176
     1
 90
        0
176
     1
 40
0.6
176
     1
 40
30.0
176
     1
 62
     7
420
 16777215
176
     1
 90
        1
176
     1
 90
        4
176
     1
 62
     7
176
     1
 62
   257
176
     1
 90
        1
176
     1
 90
        1
176
     1
 40
1.0
176
     1
 90
        0
176
     1
 62
   257
176
     1
 40
1.0
176
     1
 90
        1
176
     1
 90
        6
176
     1
 90
        2
176
     1
 62
     7
176
     1
 90
        5
176
     1
 90
        0
176
     1
 90
        0
176
     1
290
     0
176
     1
 90
        1
176
     1
 40
0.0
176
     1
 90
        0
176
     1
290
     1
176
     1
290
     1
176
     1
290
     0
176
     1
290
     0
176
     1
290
     0
176
     1
290
     0
176
     1
290
     0
176
     1
290
     0
176
     1
290
     0
176
     1
 90
       50
176
     1
 40
0.0
176
     1
 40
1.0
176
     1
 90
        0
176
     1
 62
    18
420
        0
176
     1
 90
       50
176
     1
 90
        3
176
     1
 62
     5
420
      255
176
     1
290
     0
176
     1
 90
       50
176
     1
 90
       50
176
     1
 90
       50
176
     1
290
     0
176
     1
 90
       50
176
     1
 62
   256
176
     0
 40
1.0
176
     0
 90
        2
176
     1
  1
strokes_ogs.tif
176
     1
290
     0
176
     1
 40
1.0
176
     1
 40
1.0
176
     1
  0
VISUALSTYLE
  5
32
102
{ACAD_REACTORS
330
2A
102
}
330
2A
100
AcDbVisualStyle
  2
Basic
 70
     7
177
     3
291
     1
 70
    58
 90
        1
176
     1
 90
        0
176
     1
 90
        1
176
     1
 90
        0
176
     1
 40
0.6
176
     1
 40
30.0
176
     1
 62
     7
420
 16777215
176
     1
 90
        0
176
     1
 90
        4
176
     1
 62
     7
176
     1
 62
   257
176
     1
 90
        1
176
     1
 90
        1
176
     1
 40
1.0
176
     1
 90
        8
176
     1
 62
     7
176
     1
 40
1.0
176
     1
 90
        1
176
     1
 90
        6
176
     1
 90
        2
176
     1
 62
     7
176
     1
 90
        5
176
     1
 90
        0
176
     1
 90
        0
176
     1
290
     0
176
     1
 90
        1
176
     1
 40
0.0
176
     1
 90
        0
176
     1
290
     0
176
     1
290
     1
176
     1
290
     1
176
     1
290
     0
176
     1
290
     0
176
     1
290
     0
176
     1
290
     0
176
     1
290
     0
176
     1
290
     0
176
     1
 90
       50
176
     1
 40
0.0
176
     1
 40
1.0
176
     1
 90
        0
176
     1
 62
    18
420
        0
176
     1
 90
       50
176
     1
 90
        3
176
     1
 62
     5
420
      255
176
     1
290
     0
176
     1
 90
       50
176
     1
 90
       50
176
     1
 90
       50
176
     1
290
     0
176
     1
 90
       50
176
     1
 62
   256
176
     0
 40
1.0
176
     0
 90
        2
176
     1
  1
strokes_ogs.tif
176
     1
290
     0
176
     1
 40
1.0
176
     1
 40
1.0
176
     1
  0
VISUALSTYLE
  5
36
102
{ACAD_REACTORS
330
2A
102
}
330
2A
100
AcDbVisualStyle
  2
Brighten
 70
    12
177
     3
291
     1
 70
    58
 90
        2
176
     1
 90
        2
176
     1
 90
        0
176
     1
 90
        0
176
     1
 40
0.6
176
     1
 40
30.0
176
     1
 62
     7
420
 16777215
176
     1
 90
        1
176
     1
 90
        4
176
     1
 62
     7
176
     1
 62
   257
176
     1
 90
        1
176
     1
 90
        1
176
     1
 40
1.0
176
     1
 90
        8
176
     1
 62
     7
176
     1
 40
1.0
176
     1
 90
        1
176
     1
 90
        6
176
     1
 90
        2
176
     1
 62
     7
176
     1
 90
        5
176
     1
 90
        0
176
     1
 90
        0
176
     1
290
     0
176
     1
 90
        1
176
     1
 40
50.0
176
     1
 90
        0
176
     1
290
     0
176
     1
290
     1
176
     1
290
     1
176
     1
290
     0
176
     1
290
     0
176
     1
290
     0
176
     1
290
     0
176
     1
290
     0
176
     1
290
     0
176
     1
 90
       50
176
     1
 40
0.0
176
     1
 40
1.0
176
     1
 90
        0
176
     1
 62
    18
420
        0
176
     1
 90
       50
176
     1
 90
        3
176
     1
 62
     5
420
      255
176
     1
290
     0
176
     1
 90
       50
176
     1
 90
       50
176
     1
 90
       50
176
     1
290
     0
176
     1
 90
       50
176
     1
 62
   256
176
     0
 40
1.0
176
     0
 90
        2
176
     1
  1
strokes_ogs.tif
176
     1
290
     0
176
     1
 40
1.0
176
     1
 40
1.0
176
     1
  0
VISUALSTYLE
  5
3A
102
{ACAD_REACTORS
330
2A
102
}
330
2A
100
AcDbVisualStyle
  2
ColorChange
 70
    16
177
     3
291
     1
 70
    58
 90
        2
176
     1
 90
        2
176
     1
 90
        3
176
     1
 90
        0
176
     1
 40
0.6
176
     1
 40
30.0
176
     1
 62
     8
420
  8421504
176
     1
 90
        1
176
     1
 90
        4
176
     1
 62
     7
176
     1
 62
   257
176
     1
 90
        1
176
     1
 90
        1
176
     1
 40
1.0
176
     1
 90
        8
176
     1
 62
     8
420
  8421504
176
     1
 40
1.0
176
     1
 90
        1
176
     1
 90
        6
176
     1
 90
        2
176
     1
 62
     7
176
     1
 90
        5
176
     1
 90
        0
176
     1
 90
        0
176
     1
290
     0
176
     1
 90
        1
176
     1
 40
0.0
176
     1
 90
        0
176
     1
290
     0
176
     1
290
     1
176
     1
290
     1
176
     1
290
     0
176
     1
290
     0
176
     1
290
     0
176
     1
290
     0
176
     1
290
     0
176
     1
290
     0
176
     1
 90
       50
176
     1
 40
0.0
176
     1
 40
1.0
176
     1
 90
        0
176
     1
 62
    18
420
        0
176
     1
 90
       50
176
     1
 90
        3
176
     1
 62
     5
420
      255
176
     1
290
     0
176
     1
 90
       50
176
     1
 90
       50
176
     1
 90
       50
176
     1
290
     0
176
     1
 90
       50
176
     1
 62
   256
176
     0
 40
1.0
176
     0
 90
        2
176
     1
  1
strokes_ogs.tif
176
     1
290
     0
176
     1
 40
1.0
176
     1
 40
1.0
176
     1
  0
VISUALSTYLE
  5
34
102
{ACAD_REACTORS
330
2A
102
}
330
2A
100
AcDbVisualStyle
  2
Conceptual
 70
     9
177
     3
291
     0
 70
    58
 90
        3
176
     1
 90
        2
176
     1
 90
        0
176
     1
 90
        0
176
     1
 40
0.6
176
     1
 40
30.0
176
     1
 62
     7
420
 16777215
176
     1
 90
        2
176
     1
 90
        2
176
     1
 62
     7
176
     1
 62
   257
176
     1
 90
        1
176
     1
 90
        1
176
     1
 40
179.0
176
     1
 90
        8
176
     1
 62
     7
176
     1
 40
1.0
176
     1
 90
        1
176
     1
 90
        6
176
     1
 90
        2
176
     1
 62
     7
176
     1
 90
        3
176
     1
 90
        0
176
     1
 90
        0
176
     1
290
     0
176
     1
 90
        1
176
     1
 40
0.0
176
     1
 90
        0
176
     1
290
     0
176
     1
290
     1
176
     1
290
     1
176
     1
290
     0
176
     1
290
     0
176
     1
290
     0
176
     1
290
     0
176
     1
290
     0
176
     1
290
     0
176
     1
 90
       50
176
     1
 40
0.0
176
     1
 40
1.0
176
     1
 90
        0
176
     1
 62
    18
420
        0
176
     1
 90
       50
176
     1
 90
        3
176
     1
 62
     5
420
      255
176
     1
290
     0
176
     1
 90
       50
176
     1
 90
       50
176
     1
 90
       50
176
     1
290
     0
176
     1
 90
       50
176
     1
 62
   256
176
     0
 40
1.0
176
     0
 90
        2
176
     1
  1
strokes_ogs.tif
176
     1
290
     0
176
     1
 40
1.0
176
     1
 40
1.0
176
     1
  0
VISUALSTYLE
  5
35
102
{ACAD_REACTORS
330
2A
102
}
330
2A
100
AcDbVisualStyle
  2
Dim
 70
    11
177
     3
291
     1
 70
    58
 90
        2
176
     1
 90
        2
176
     1
 90
        0
176
     1
 90
        0
176
     1
 40
0.6
176
     1
 40
30.0
176
     1
 62
     7
420
 16777215
176
     1
 90
        1
176
     1
 90
        4
176
     1
 62
     7
176
     1
 62
   257
176
     1
 90
        1
176
     1
 90
        1
176
     1
 40
1.0
176
     1
 90
        8
176
     1
 62
     7
176
     1
 40
1.0
176
     1
 90
        1
176
     1
 90
        6
176
     1
 90
        2
176
     1
 62
     7
176
     1
 90
        5
176
     1
 90
        0
176
     1
 90
        0
176
     1
290
     0
176
     1
 90
        1
176
     1
 40
-50.0
176
     1
 90
        0
176
     1
290
     0
176
     1
290
     1
176
     1
290
     1
176
     1
290
     0
176
     1
290
     0
176
     1
290
     0
176
     1
290
     0
176
     1
290
     0
176
     1
290
     0
176
     1
 90
       50
176
     1
 40
0.0
176
     1
 40
1.0
176
     1
 90
        0
176
     1
 62
    18
420
        0
176
     1
 90
       50
176
     1
 90
        3
176
     1
 62
     5
420
      255
176
     1
290
     0
176
     1
 90
       50
176
     1
 90
       50
176
     1
 90
       50
176
     1
290
     0
176
     1
 90
       50
176
     1
 62
   256
176
     0
 40
1.0
176
     0
 90
        2
176
     1
  1
strokes_ogs.tif
176
     1
290
     0
176
     1
 40
1.0
176
     1
 40
1.0
176
     1
  0
VISUALSTYLE
  5
3D
102
{ACAD_REACTORS
330
2A
102
}
330
2A
100
AcDbVisualStyle
  2
EdgeColorOff
 70
    22
177
     3
291
     1
 70
    58
 90
        2
176
     0
 90
        2
176
     0
 90
        0
176
     0
 90
        0
176
     0
 40
0.6
176
     0
 40
30.0
176
     0
 62
     7
420
 16777215
176
     0
 90
        1
176
     0
 90
        4
176
     0
 62
     7
176
     0
 62
   257
176
     0
 90
        1
176
     0
 90
        1
176
     0
 40
1.0
176
     0
 90
        8
176
     2
 62
     7
176
     0
 40
1.0
176
     0
 90
        1
176
     0
 90
        6
176
     0
 90
        2
176
     0
 62
     7
176
     0
 90
        5
176
     0
 90
        0
176
     0
 90
        0
176
     0
290
     0
176
     0
 90
        1
176
     0
 40
0.0
176
     0
 90
        0
176
     0
290
     0
176
     0
290
     1
176
     0
290
     1
176
     0
290
     0
176
     0
290
     0
176
     0
290
     0
176
     0
290
     0
176
     0
290
     0
176
     0
290
     0
176
     0
 90
       50
176
     0
 40
0.0
176
     0
 40
1.0
176
     0
 90
        0
176
     0
 62
    18
420
        0
176
     0
 90
       50
176
     0
 90
        3
176
     0
 62
     5
420
      255
176
     0
290
     0
176
     0
 90
       50
176
     0
 90
       50
176
     0
 90
       50
176
     0
290
     0
176
     0
 90
       50
176
     0
 62
   256
176
     0
 40
1.0
176
     0
 90
        2
176
     0
  1
strokes_ogs.tif
176
     0
290
     0
176
     0
 40
1.0
176
     0
 40
1.0
176
     0
  0
VISUALSTYLE
  5
39
102
{ACAD_REACTORS
330
2A
102
}
330
2A
100
AcDbVisualStyle
  2
Facepattern
 70
    15
177
     3
291
     1
 70
    58
 90
        2
176
     1
 90
        2
176
     1
 90
        0
176
     1
 90
        0
176
     1
 40
0.6
176
     1
 40
30.0
176
     1
 62
     7
420
 16777215
176
     1
 90
        1
176
     1
 90
        4
176
     1
 62
     7
176
     1
 62
   257
176
     1
 90
        1
176
     1
 90
        1
176
     1
 40
1.0
176
     1
 90
        8
176
     1
 62
     7
176
     1
 40
1.0
176
     1
 90
        1
176
     1
 90
        6
176
     1
 90
        2
176
     1
 62
     7
176
     1
 90
        5
176
     1
 90
        0
176
     1
 90
        0
176
     1
290
     0
176
     1
 90
        1
176
     1
 40
0.0
176
     1
 90
        0
176
     1
290
     0
176
     1
290
     1
176
     1
290
     1
176
     1
290
     0
176
     1
290
     0
176
     1
290
     0
176
     1
290
     0
176
     1
290
     0
176
     1
290
     0
176
     1
 90
       50
176
     1
 40
0.0
176
     1
 40
1.0
176
     1
 90
        0
176
     1
 62
    18
420
        0
176
     1
 90
       50
176
     1
 90
        3
176
     1
 62
     5
420
      255
176
     1
290
     0
176
     1
 90
       50
176
     1
 90
       50
176
     1
 90
       50
176
     1
290
     0
176
     1
 90
       50
176
     1
 62
   256
176
     0
 40
1.0
176
     0
 90
        2
176
     1
  1
strokes_ogs.tif
176
     1
290
     0
176
     1
 40
1.0
176
     1
 40
1.0
176
     1
  0
VISUALSTYLE
  5
2B
102
{ACAD_REACTORS
330
2A
102
}
330
2A
100
AcDbVisualStyle
  2
Flat
 70
     0
177
     3
291
     1
 70
    58
 90
        2
176
     1
 90
        1
176
     1
 90
        1
176
     1
 90
        2
176
     1
 40
0.6
176
     1
 40
30.0
176
     1
 62
     7
420
 16777215
176
     1
 90
        0
176
     1
 90
        0
176
     1
 62
     7
176
     1
 62
   257
176
     1
 90
        1
176
     1
 90
        1
176
     1
 40
1.0
176
     1
 90
        8
176
     1
 62
     7
176
     1
 40
1.0
176
     1
 90
        1
176
     1
 90
        6
176
     1
 90
        2
176
     1
 62
     7
176
     1
 90
        5
176
     1
 90
        0
176
     1
 90
        0
176
     1
290
     0
176
     1
 90
       13
176
     1
 40
0.0
176
     1
 90
        0
176
     1
290
     0
176
     1
290
     1
176
     1
290
     1
176
     1
290
     0
176
     1
290
     0
176
     1
290
     0
176
     1
290
     0
176
     1
290
     0
176
     1
290
     0
176
     1
 90
       50
176
     1
 40
0.0
176
     1
 40
1.0
176
     1
 90
        0
176
     1
 62
    18
420
        0
176
     1
 90
       50
176
     1
 90
        3
176
     1
 62
     5
420
      255
176
     1
290
     0
176
     1
 90
       50
176
     1
 90
       50
176
     1
 90
       50
176
     1
290
     0
176
     1
 90
       50
176
     1
 62
   256
176
     0
 40
1.0
176
     0
 90
        2
176
     1
  1
strokes_ogs.tif
176
     1
290
     0
176
     1
 40
1.0
176
     1
 40
1.0
176
     1
  0
VISUALSTYLE
  5
2C
102
{ACAD_REACTORS
330
2A
102
}
330
2A
100
AcDbVisualStyle
  2
FlatWithEdges
 70
     1
177
     3
291
     1
 70
    58
 90
        2
176
     1
 90
        1
176
     1
 90
        1
176
     1
 90
        2
176
     1
 40
0.6
176
     1
 40
30.0
176
     1
 62
     7
420
 16777215
176
     1
 90
        1
176
     1
 90
        0
176
     1
 62
     7
176
     1
 62
   257
176
     1
 90
        1
176
     1
 90
        1
176
     1
 40
1.0
176
     1
 90
        0
176
     1
 62
   257
176
     1
 40
1.0
176
     1
 90
        1
176
     1
 90
        6
176
     1
 90
        2
176
     1
 62
     7
176
     1
 90
        5
176
     1
 90
        0
176
     1
 90
        0
176
     1
290
     0
176
     1
 90
       13
176
     1
 40
0.0
176
     1
 90
        0
176
     1
290
     0
176
     1
290
     1
176
     1
290
     1
176
     1
290
     0
176
     1
290
     0
176
     1
290
     0
176
     1
290
     0
176
     1
290
     0
176
     1
290
     0
176
     1
 90
       50
176
     1
 40
0.0
176
     1
 40
1.0
176
     1
 90
        0
176
     1
 62
    18
420
        0
176
     1
 90
       50
176
     1
 90
        3
176
     1
 62
     5
420
      255
176
     1
290
     0
176
     1
 90
       50
176
     1
 90
       50
176
     1
 90
       50
176
     1
290
     0
176
     1
 90
       50
176
     1
 62
   256
176
     0
 40
1.0
176
     0
 90
        2
176
     1
  1
strokes_ogs.tif
176
     1
290
     0
176
     1
 40
1.0
176
     1
 40
1.0
176
     1
  0
VISUALSTYLE
  5
2D
102
{ACAD_REACTORS
330
2A
102
}
330
2A
100
AcDbVisualStyle
  2
Gouraud
 70
     2
177
     3
291
     1
 70
    58
 90
        2
176
     1
 90
        2
176
     1
 90
        1
176
     1
 90
        2
176
     1
 40
0.6
176
     1
 40
30.0
176
     1
 62
     7
420
 16777215
176
     1
 90
        0
176
     1
 90
        0
176
     1
 62
     7
176
     1
 62
   257
176
     1
 90
        1
176
     1
 90
        1
176
     1
 40
1.0
176
     1
 90
        0
176
     1
 62
     7
176
     1
 40
1.0
176
     1
 90
        1
176
     1
 90
        6
176
     1
 90
        2
176
     1
 62
     7
176
     1
 90
        5
176
     1
 90
        0
176
     1
 90
        0
176
     1
290
     0
176
     1
 90
       13
176
     1
 40
0.0
176
     1
 90
        0
176
     1
290
     0
176
     1
290
     1
176
     1
290
     1
176
     1
290
     0
176
     1
290
     0
176
     1
290
     0
176
     1
290
     0
176
     1
290
     0
176
     1
290
     0
176
     1
 90
       50
176
     1
 40
0.0
176
     1
 40
1.0
176
     1
 90
        0
176
     1
 62
    18
420
        0
176
     1
 90
       50
176
     1
 90
        3
176
     1
 62
     5
420
      255
176
     1
290
     0
176
     1
 90
       50
176
     1
 90
       50
176
     1
 90
       50
176
     1
290
     0
176
     1
 90
       50
176
     1
 62
   256
176
     0
 40
1.0
176
     0
 90
        2
176
     1
  1
strokes_ogs.tif
176
     1
290
     0
176
     1
 40
1.0
176
     1
 40
1.0
176
     1
  0
VISUALSTYLE
  5
2E
102
{ACAD_REACTORS
330
2A
102
}
330
2A
100
AcDbVisualStyle
  2
GouraudWithEdges
 70
     3
177
     3
291
     1
 70
    58
 90
        2
176
     1
 90
        2
176
     1
 90
        1
176
     1
 90
        2
176
     1
 40
0.6
176
     1
 40
30.0
176
     1
 62
     7
420
 16777215
176
     1
 90
        1
176
     1
 90
        0
176
     1
 62
     7
176
     1
 62
   257
176
     1
 90
        1
176
     1
 90
        1
176
     1
 40
1.0
176
     1
 90
        0
176
     1
 62
   257
176
     1
 40
1.0
176
     1
 90
        1
176
     1
 90
        6
176
     1
 90
        2
176
     1
 62
     7
176
     1
 90
        5
176
     1
 90
        0
176
     1
 90
        0
176
     1
290
     0
176
     1
 90
       13
176
     1
 40
0.0
176
     1
 90
        0
176
     1
290
     0
176
     1
290
     1
176
     1
290
     1
176
     1
290
     0
176
     1
290
     0
176
     1
290
     0
176
     1
290
     0
176
     1
290
     0
176
     1
290
     0
176
     1
 90
       50
176
     1
 40
0.0
176
     1
 40
1.0
176
     1
 90
        0
176
     1
 62
    18
420
        0
176
     1
 90
       50
176
     1
 90
        3
176
     1
 62
     5
420
      255
176
     1
290
     0
176
     1
 90
       50
176
     1
 90
       50
176
     1
 90
       50
176
     1
290
     0
176
     1
 90
       50
176
     1
 62
   256
176
     0
 40
1.0
176
     0
 90
        2
176
     1
  1
strokes_ogs.tif
176
     1
290
     0
176
     1
 40
1.0
176
     1
 40
1.0
176
     1
  0
VISUALSTYLE
  5
31
102
{ACAD_REACTORS
330
2A
102
}
330
2A
100
AcDbVisualStyle
  2
Hidden
 70
     6
177
     3
291
     0
 70
    58
 90
        1
176
     1
 90
        2
176
     1
 90
        2
176
     1
 90
        0
176
     1
 40
0.6
176
     1
 40
30.0
176
     1
 62
     7
420
 16777215
176
     1
 90
        2
176
     1
 90
        2
176
     1
 62
     7
176
     1
 62
   257
176
     1
 90
        2
176
     1
 90
        1
176
     1
 40
40.0
176
     1
 90
        0
176
     1
 62
   257
176
     1
 40
1.0
176
     1
 90
        1
176
     1
 90
        6
176
     1
 90
        2
176
     1
 62
     7
176
     1
 90
        3
176
     1
 90
        0
176
     1
 90
        0
176
     1
290
     0
176
     1
 90
        1
176
     1
 40
0.0
176
     1
 90
        0
176
     1
290
     0
176
     1
290
     1
176
     1
290
     1
176
     1
290
     0
176
     1
290
     0
176
     1
290
     0
176
     1
290
     0
176
     1
290
     0
176
     1
290
     0
176
     1
 90
       50
176
     1
 40
0.0
176
     1
 40
1.0
176
     1
 90
        0
176
     1
 62
    18
420
        0
176
     1
 90
       50
176
     1
 90
        3
176
     1
 62
     5
420
      255
176
     1
290
     0
176
     1
 90
       50
176
     1
 90
       50
176
     1
 90
       50
176
     1
290
     0
176
     1
 90
       50
176
     1
 62
   256
176
     0
 40
1.0
176
     0
 90
        2
176
     1
  1
strokes_ogs.tif
176
     1
290
     0
176
     1
 40
1.0
176
     1
 40
1.0
176
     1
  0
VISUALSTYLE
  5
3B
102
{ACAD_REACTORS
330
2A
102
}
330
2A
100
AcDbVisualStyle
  2
JitterOff
 70
    20
177
     3
291
     1
 70
    58
 90
        2
176
     0
 90
        2
176
     0
 90
        0
176
     0
 90
        0
176
     0
 40
0.6
176
     0
 40
30.0
176
     0
 62
     7
420
 16777215
176
     0
 90
        1
176
     0
 90
        4
176
     0
 62
     7
176
     0
 62
   257
176
     0
 90
        1
176
     0
 90
        1
176
     0
 40
1.0
176
     0
 90
       10
176
     2
 62
     7
176
     0
 40
1.0
176
     0
 90
        1
176
     0
 90
        6
176
     0
 90
        2
176
     0
 62
     7
176
     0
 90
        5
176
     0
 90
        0
176
     0
 90
        0
176
     0
290
     0
176
     0
 90
        1
176
     0
 40
0.0
176
     0
 90
        0
176
     0
290
     0
176
     0
290
     1
176
     0
290
     1
176
     0
290
     0
176
     0
290
     0
176
     0
290
     0
176
     0
290
     0
176
     0
290
     0
176
     0
290
     0
176
     0
 90
       50
176
     0
 40
0.0
176
     0
 40
1.0
176
     0
 90
        0
176
     0
 62
    18
420
        0
176
     0
 90
       50
176
     0
 90
        3
176
     0
 62
     5
420
      255
176
     0
290
     0
176
     0
 90
       50
176
     0
 90
       50
176
     0
 90
       50
176
     0
290
     0
176
     0
 90
       50
176
     0
 62
   256
176
     0
 40
1.0
176
     0
 90
        2
176
     0
  1
strokes_ogs.tif
176
     0
290
     0
176
     0
 40
1.0
176
     0
 40
1.0
176
     0
  0
VISUALSTYLE
  5
38
102
{ACAD_REACTORS
330
2A
102
}
330
2A
100
AcDbVisualStyle
  2
Linepattern
 70
    14
177
     3
291
     1
 70
    58
 90
        2
176
     1
 90
        2
176
     1
 90
        0
176
     1
 90
        0
176
     1
 40
0.6
176
     1
 40
30.0
176
     1
 62
     7
420
 16777215
176
     1
 90
        1
176
     1
 90
        4
176
     1
 62
     7
176
     1
 62
   257
176
     1
 90
        7
176
     1
 90
        7
176
     1
 40
1.0
176
     1
 90
        8
176
     1
 62
     7
176
     1
 40
1.0
176
     1
 90
        1
176
     1
 90
        6
176
     1
 90
        2
176
     1
 62
     7
176
     1
 90
        5
176
     1
 90
        0
176
     1
 90
        0
176
     1
290
     0
176
     1
 90
        1
176
     1
 40
0.0
176
     1
 90
        0
176
     1
290
     0
176
     1
290
     1
176
     1
290
     1
176
     1
290
     0
176
     1
290
     0
176
     1
290
     0
176
     1
290
     0
176
     1
290
     0
176
     1
290
     0
176
     1
 90
       50
176
     1
 40
0.0
176
     1
 40
1.0
176
     1
 90
        0
176
     1
 62
    18
420
        0
176
     1
 90
       50
176
     1
 90
        3
176
     1
 62
     5
420
      255
176
     1
290
     0
176
     1
 90
       50
176
     1
 90
       50
176
     1
 90
       50
176
     1
290
     0
176
     1
 90
       50
176
     1
 62
   256
176
     0
 40
1.0
176
     0
 90
        2
176
     1
  1
strokes_ogs.tif
176
     1
290
     0
176
     1
 40
1.0
176
     1
 40
1.0
176
     1
  0
VISUALSTYLE
  5
3C
102
{ACAD_REACTORS
330
2A
102
}
330
2A
100
AcDbVisualStyle
  2
OverhangOff
 70
    21
177
     3
291
     1
 70
    58
 90
        2
176
     0
 90
        2
176
     0
 90
        0
176
     0
 90
        0
176
     0
 40
0.6
176
     0
 40
30.0
176
     0
 62
     7
420
 16777215
176
     0
 90
        1
176
     0
 90
        4
176
     0
 62
     7
176
     0
 62
   257
176
     0
 90
        1
176
     0
 90
        1
176
     0
 40
1.0
176
     0
 90
        9
176
     2
 62
     7
176
     0
 40
1.0
176
     0
 90
        1
176
     0
 90
        6
176
     0
 90
        2
176
     0
 62
     7
176
     0
 90
        5
176
     0
 90
        0
176
     0
 90
        0
176
     0
290
     0
176
     0
 90
        1
176
     0
 40
0.0
176
     0
 90
        0
176
     0
290
     0
176
     0
290
     1
176
     0
290
     1
176
     0
290
     0
176
     0
290
     0
176
     0
290
     0
176
     0
290
     0
176
     0
290
     0
176
     0
290
     0
176
     0
 90
       50
176
     0
 40
0.0
176
     0
 40
1.0
176
     0
 90
        0
176
     0
 62
    18
420
        0
176
     0
 90
       50
176
     0
 90
        3
176
     0
 62
     5
420
      255
176
     0
290
     0
176
     0
 90
       50
176
     0
 90
       50
176
     0
 90
       50
176
     0
290
     0
176
     0
 90
       50
176
     0
 62
   256
176
     0
 40
1.0
176
     0
 90
        2
176
     0
  1
strokes_ogs.tif
176
     0
290
     0
176
     0
 40
1.0
176
     0
 40
1.0
176
     0
  0
VISUALSTYLE
  5
33
102
{ACAD_REACTORS
330
2A
102
}
330
2A
100
AcDbVisualStyle
  2
Realistic
 70
     8
177
     3
291
     0
 70
    58
 90
        2
176
     1
 90
        3
176
     1
 90
        0
176
     1
 90
        2
176
     1
 40
0.6
176
     1
 40
30.0
176
     1
 62
     7
420
 16777215
176
     1
 90
        0
176
     1
 90
        0
176
     1
 62
     7
176
     1
 62
   257
176
     1
 90
        1
176
     1
 90
        1
176
     1
 40
1.0
176
     1
 90
        8
176
     1
 62
   257
176
     1
 40
1.0
176
     1
 90
        1
176
     1
 90
        6
176
     1
 90
        2
176
     1
 62
     7
176
     1
 90
        3
176
     1
 90
        0
176
     1
 90
        0
176
     1
290
     0
176
     1
 90
       13
176
     1
 40
0.0
176
     1
 90
        0
176
     1
290
     0
176
     1
290
     1
176
     1
290
     1
176
     1
290
     0
176
     1
290
     0
176
     1
290
     0
176
     1
290
     0
176
     1
290
     0
176
     1
290
     0
176
     1
 90
       50
176
     1
 40
0.0
176
     1
 40
1.0
176
     1
 90
        0
176
     1
 62
    18
420
        0
176
     1
 90
       50
176
     1
 90
        3
176
     1
 62
     5
420
      255
176
     1
290
     0
176
     1
 90
       50
176
     1
 90
       50
176
     1
 90
       50
176
     1
290
     0
176
     1
 90
       50
176
     1
 62
   256
176
     0
 40
1.0
176
     0
 90
        2
176
     1
  1
strokes_ogs.tif
176
     1
290
     0
176
     1
 40
1.0
176
     1
 40
1.0
176
     1
  0
VISUALSTYLE
  5
42
102
{ACAD_REACTORS
330
2A
102
}
330
2A
100
AcDbVisualStyle
  2
Shaded
 70
    27
177
     3
291
     0
 70
    58
 90
        2
176
     1
 90
        2
176
     1
 90
        1
176
     1
 90
        2
176
     1
 40
0.6
176
     1
 40
30.0
176
     1
 62
     7
420
 16777215
176
     1
 90
        0
176
     1
 90
        4
176
     1
 62
     7
176
     1
 62
   257
176
     1
 90
        1
176
     1
 90
        1
176
     1
 40
1.0
176
     1
 90
        8
176
     1
 62
   257
176
     1
 40
1.0
176
     1
 90
        1
176
     1
 90
        6
176
     1
 90
        2
176
     1
 62
     8
420
  7895160
176
     1
 90
        3
176
     1
 90
        0
176
     1
 90
        0
176
     1
290
     0
176
     1
 90
        5
176
     1
 40
0.0
176
     1
 90
        0
176
     1
290
     0
176
     1
290
     1
176
     1
290
     1
176
     1
290
     0
176
     1
290
     0
176
     1
290
     0
176
     1
290
     0
176
     1
290
     0
176
     1
290
     0
176
     1
 90
       50
176
     1
 40
0.0
176
     1
 40
1.0
176
     1
 90
        0
176
     1
 62
    18
420
        0
176
     1
 90
       50
176
     1
 90
        3
176
     1
 62
     5
420
      255
176
     1
290
     0
176
     1
 90
       50
176
     1
 90
       50
176
     1
 90
       50
176
     1
290
     0
176
     1
 90
       50
176
     1
 62
   256
176
     0
 40
1.0
176
     0
 90
        2
176
     1
  1
strokes_ogs.tif
176
     1
290
     0
176
     1
 40
1.0
176
     1
 40
1.0
176
     1
  0
VISUALSTYLE
  5
41
102
{ACAD_REACTORS
330
2A
102
}
330
2A
100
AcDbVisualStyle
  2
Shaded with edges
 70
    26
177
     3
291
     0
 70
    58
 90
        2
176
     1
 90
        2
176
     1
 90
        1
176
     1
 90
        2
176
     1
 40
0.6
176
     1
 40
30.0
176
     1
 62
     7
420
 16777215
176
     1
 90
        1
176
     1
 90
       10
176
     1
 62
     7
176
     1
 62
   257
176
     1
 90
        2
176
     1
 90
        1
176
     1
 40
1.0
176
     1
 90
        8
176
     1
 62
   257
176
     1
 40
1.0
176
     1
 90
        1
176
     1
 90
        6
176
     1
 90
        2
176
     1
 62
     7
176
     1
 90
        3
176
     1
 90
        0
176
     1
 90
        0
176
     1
290
     0
176
     1
 90
        5
176
     1
 40
0.0
176
     1
 90
        0
176
     1
290
     0
176
     1
290
     1
176
     1
290
     1
176
     1
290
     0
176
     1
290
     0
176
     1
290
     0
176
     1
290
     0
176
     1
290
     0
176
     1
290
     0
176
     1
 90
       50
176
     1
 40
0.0
176
     1
 40
1.0
176
     1
 90
        0
176
     1
 62
    18
420
        0
176
     1
 90
       50
176
     1
 90
        3
176
     1
 62
     5
420
      255
176
     1
290
     0
176
     1
 90
       50
176
     1
 90
       50
176
     1
 90
       50
176
     1
290
     0
176
     1
 90
       50
176
     1
 62
   256
176
     0
 40
1.0
176
     0
 90
        2
176
     1
  1
strokes_ogs.tif
176
     1
290
     0
176
     1
 40
1.0
176
     1
 40
1.0
176
     1
  0
VISUALSTYLE
  5
3E
102
{ACAD_REACTORS
330
2A
102
}
330
2A
100
AcDbVisualStyle
  2
Shades of Gray
 70
    23
177
     3
291
     0
 70
    58
 90
        2
176
     1
 90
        2
176
     1
 90
        3
176
     1
 90
        0
176
     1
 40
0.6
176
     1
 40
30.0
176
     1
 62
     7
420
 16777215
176
     1
 90
        2
176
     1
 90
        2
176
     1
 62
     7
176
     1
 62
     7
176
     1
 90
        1
176
     1
 90
        1
176
     1
 40
40.0
176
     1
 90
        8
176
     1
 62
     7
176
     1
 40
1.0
176
     1
 90
        1
176
     1
 90
        6
176
     1
 90
        2
176
     1
 62
     7
176
     1
 90
        3
176
     1
 90
        0
176
     1
 90
        0
176
     1
290
     0
176
     1
 90
        1
176
     1
 40
0.0
176
     1
 90
        0
176
     1
290
     0
176
     1
290
     1
176
     1
290
     1
176
     1
290
     0
176
     1
290
     0
176
     1
290
     0
176
     1
290
     0
176
     1
290
     0
176
     1
290
     0
176
     1
 90
       50
176
     1
 40
0.0
176
     1
 40
1.0
176
     1
 90
        0
176
     1
 62
    18
420
        0
176
     1
 90
       50
176
     1
 90
        3
176
     1
 62
     5
420
      255
176
     1
290
     0
176
     1
 90
       50
176
     1
 90
       50
176
     1
 90
       50
176
     1
290
     0
176
     1
 90
       50
176
     1
 62
   256
176
     0
 40
1.0
176
     0
 90
        2
176
     1
  1
strokes_ogs.tif
176
     1
290
     0
176
     1
 40
1.0
176
     1
 40
1.0
176
     1
  0
VISUALSTYLE
  5
3F
102
{ACAD_REACTORS
330
2A
102
}
330
2A
100
AcDbVisualStyle
  2
Sketchy
 70
    24
177
     3
291
     0
 70
    58
 90
        1
176
     1
 90
        2
176
     1
 90
        2
176
     1
 90
        0
176
     1
 40
0.6
176
     1
 40
30.0
176
     1
 62
     7
420
 16777215
176
     1
 90
        2
176
     1
 90
        2
176
     1
 62
     7
176
     1
 62
     7
176
     1
 90
        1
176
     1
 90
        1
176
     1
 40
40.0
176
     1
 90
       11
176
     1
 62
     7
176
     1
 40
1.0
176
     1
 90
        1
176
     1
 90
        6
176
     1
 90
        2
176
     1
 62
     7
176
     1
 90
        6
176
     1
 90
        0
176
     1
 90
        0
176
     1
290
     0
176
     1
 90
        1
176
     1
 40
0.0
176
     1
 90
        0
176
     1
290
     0
176
     1
290
     1
176
     1
290
     1
176
     1
290
     0
176
     1
290
     0
176
     1
290
     0
176
     1
290
     0
176
     1
290
     0
176
     1
290
     0
176
     1
 90
       50
176
     1
 40
0.0
176
     1
 40
1.0
176
     1
 90
        0
176
     1
 62
    18
420
        0
176
     1
 90
       50
176
     1
 90
        3
176
     1
 62
     5
420
      255
176
     1
290
     0
176
     1
 90
       50
176
     1
 90
       50
176
     1
 90
       50
176
     1
290
     0
176
     1
 90
       50
176
     1
 62
   256
176
     0
 40
1.0
176
     0
 90
        2
176
     1
  1
strokes_ogs.tif
176
     1
290
     0
176
     1
 40
1.0
176
     1
 40
1.0
176
     1
  0
VISUALSTYLE
  5
37
102
{ACAD_REACTORS
330
2A
102
}
330
2A
100
AcDbVisualStyle
  2
Thicken
 70
    13
177
     3
291
     1
 70
    58
 90
        2
176
     1
 90
        2
176
     1
 90
        0
176
     1
 90
        0
176
     1
 40
0.6
176
     1
 40
30.0
176
     1
 62
     7
420
 16777215
176
     1
 90
        1
176
     1
 90
        4
176
     1
 62
     7
176
     1
 62
   257
176
     1
 90
        1
176
     1
 90
        1
176
     1
 40
1.0
176
     1
 90
       12
176
     1
 62
     7
176
     1
 40
1.0
176
     1
 90
        1
176
     1
 90
        6
176
     1
 90
        2
176
     1
 62
     7
176
     1
 90
        5
176
     1
 90
        0
176
     1
 90
        0
176
     1
290
     0
176
     1
 90
        1
176
     1
 40
0.0
176
     1
 90
        0
176
     1
290
     0
176
     1
290
     1
176
     1
290
     1
176
     1
290
     0
176
     1
290
     0
176
     1
290
     0
176
     1
290
     0
176
     1
290
     0
176
     1
290
     0
176
     1
 90
       50
176
     1
 40
0.0
176
     1
 40
1.0
176
     1
 90
        0
176
     1
 62
    18
420
        0
176
     1
 90
       50
176
     1
 90
        3
176
     1
 62
     5
420
      255
176
     1
290
     0
176
     1
 90
       50
176
     1
 90
       50
176
     1
 90
       50
176
     1
290
     0
176
     1
 90
       50
176
     1
 62
   256
176
     0
 40
1.0
176
     0
 90
        2
176
     1
  1
strokes_ogs.tif
176
     1
290
     0
176
     1
 40
1.0
176
     1
 40
1.0
176
     1
  0
VISUALSTYLE
  5
30
102
{ACAD_REACTORS
330
2A
102
}
330
2A
100
AcDbVisualStyle
  2
Wireframe
 70
     5
177
     3
291
     0
 70
    58
 90
        0
176
     1
 90
        2
176
     1
 90
        0
176
     1
 90
        0
176
     1
 40
0.6
176
     1
 40
30.0
176
     1
 62
     7
420
 16777215
176
     1
 90
        1
176
     1
 90
        4
176
     1
 62
     7
176
     1
 62
   257
176
     1
 90
        1
176
     1
 90
        1
176
     1
 40
1.0
176
     1
 90
        0
176
     1
 62
   257
176
     1
 40
1.0
176
     1
 90
        1
176
     1
 90
        6
176
     1
 90
        2
176
     1
 62
     7
176
     1
 90
        3
176
     1
 90
        0
176
     1
 90
        0
176
     1
290
     0
176
     1
 90
        1
176
     1
 40
0.0
176
     1
 90
        0
176
     1
290
     0
176
     1
290
     1
176
     1
290
     1
176
     1
290
     0
176
     1
290
     0
176
     1
290
     0
176
     1
290
     0
176
     1
290
     0
176
     1
290
     0
176
     1
 90
       50
176
     1
 40
0.0
176
     1
 40
1.0
176
     1
 90
        0
176
     1
 62
    18
420
        0
176
     1
 90
       50
176
     1
 90
        3
176
     1
 62
     5
420
      255
176
     1
290
     0
176
     1
 90
       50
176
     1
 90
       50
176
     1
 90
       50
176
     1
290
     0
176
     1
 90
       50
176
     1
 62
   256
176
     0
 40
1.0
176
     0
 90
        2
176
     1
  1
strokes_ogs.tif
176
     1
290
     0
176
     1
 40
1.0
176
     1
 40
1.0
176
     1
  0
VISUALSTYLE
  5
40
102
{ACAD_REACTORS
330
2A
102
}
330
2A
100
AcDbVisualStyle
  2
X-Ray
 70
    25
177
     3
291
     0
 70
    58
 90
        2
176
     1
 90
        2
176
     1
 90
        1
176
     1
 90
        1
176
     1
 40
0.5
176
     1
 40
30.0
176
     1
 62
     7
420
 16777215
176
     1
 90
        1
176
     1
 90
        0
176
     1
 62
     7
176
     1
 62
   257
176
     1
 90
        1
176
     1
 90
        1
176
     1
 40
1.0
176
     1
 90
        8
176
     1
 62
     7
176
     1
 40
1.0
176
     1
 90
        1
176
     1
 90
        6
176
     1
 90
        2
176
     1
 62
     7
176
     1
 90
        3
176
     1
 90
        0
176
     1
 90
        0
176
     1
290
     0
176
     1
 90
       13
176
     1
 40
0.0
176
     1
 90
        0
176
     1
290
     0
176
     1
290
     1
176
     1
290
     1
176
     1
290
     0
176
     1
290
     0
176
     1
290
     0
176
     1
290
     0
176
     1
290
     0
176
     1
290
     0
176
     1
 90
       50
176
     1
 40
0.0
176
     1
 40
1.0
176
     1
 90
        0
176
     1
 62
    18
420
        0
176
     1
 90
       50
176
     1
 90
        3
176
     1
 62
     5
420
      255
176
     1
290
     0
176
     1
 90
       50
176
     1
 90
       50
176
     1
 90
       50
176
     1
290
     0
176
     1
 90
       50
176
     1
 62
   256
176
     0
 40
1.0
176
     0
 90
        2
176
     1
  1
strokes_ogs.tif
176
     1
290
     0
176
     1
 40
1.0
176
     1
 40
1.0
176
     1
  0
DICTIONARYVAR
  5
2CB
102
{ACAD_REACTORS
330
2CA
102
}
330
2CA
100
DictionaryVariables
280
     0
  1
1:1
  0
DICTIONARYVAR
  5
2D0
102
{ACAD_REACTORS
330
2CA
102
}
330
2CA
100
DictionaryVariables
280
     0
  1
3.500000
  0
DICTIONARYVAR
  5
2D1
102
{ACAD_REACTORS
330
2CA
102
}
330
2CA
100
DictionaryVariables
280
     0
  1
acadiso.lin
  0
DICTIONARYVAR
  5
2CD
102
{ACAD_REACTORS
330
2CA
102
}
330
2CA
100
DictionaryVariables
280
     0
  1
STANDARD
  0
DICTIONARYVAR
  5
2CC
102
{ACAD_REACTORS
330
2CA
102
}
330
2CA
100
DictionaryVariables
280
     0
  1
STANDARD
  0
DICTIONARYVAR
  5
310
102
{ACAD_REACTORS
330
2CA
102
}
330
2CA
100
DictionaryVariables
280
     0
  1
Metric50
  0
DICTIONARYVAR
  5
311
102
{ACAD_REACTORS
330
2CA
102
}
330
2CA
100
DictionaryVariables
280
     0
  1
Metric50
  0
XRECORD
  5
30F
102
{ACAD_REACTORS
330
2F0
102
}
330
2F0
100
AcDbXrecord
280
     1
1000
ADE02C001
1070
     1
1070
     0
1002
{
1002
}
1002
{
1002
}
1002
{
1002
}
1000

  0
XRECORD
  5
2F5
102
{ACAD_REACTORS
330
2F3
102
}
330
2F3
100
AcDbXrecord
280
     1
330
74
330
95
330
B6
330
D7
330
F8
330
119
330
13A
330
161
330
181
330
1A1
330
1C1
330
1E1
330
201
330
221
330
26E
330
282
330
2A3
  0
DMSTYLIZEDENTITIESTABLE
  5
2EC
102
{ACAD_REACTORS
330
2D7
102
}
330
2D7
100
AcMapDMStylizedEntitiesTable
 70
     1
  0
MAPRESOURCEMANAGEROBJECT
  5
2DF
102
{ACAD_REACTORS
330
2D7
102
}
330
2D7
100
AcMapResourceManager
 70
     1
 90
        0
  0
DATATABLE
  5
2DB
102
{ACAD_REACTORS
330
2D7
102
}
330
2D7
100
AcDbDataTable
 70
     2
 90
        4
 91
       15
  1

 92
        3
  2
OriginalClassName
  3
AcMapDMDefaultStyle
  3
AcMapDMEntityStyle
  3
AcMapDMRasterStyle
  3
AcMapDMSEAnnotationStyle
  3
AcMapDMSEHatchStyle
  3
AcMapDMSETextStyle
  3
AcMapDMThematicStyle
  3
AcMapDMBaseElement
  3
AcMapDMAttachedDwgsQueryElement
  3
AcMapDMFeatureElement
  3
AcMapDMLayerElement
  3
AcMapDMCurrentDwgQueryElement
  3
AcMapDMRasterElement
  3
AcMapDMTopoElement
  3
AcMapDMTopoQueryElement
 92
        3
  2
ProxyDisplayName
  3
Default
  3
Entity
  3
Raster
  3
Annotation
  3
Hatch
  3
Text
  3
Thematic
  3
Map Base
  3
Ade Query
  3
Feature Class
  3
Layer
  3
Ade Project Query
  3
Raster
  3
Topology
  3
Topology Query
 92
        1
  2
CustomObjectType
 93
        2
 93
        2
 93
        2
 93
        2
 93
        2
 93
        2
 93
        2
 93
        1
 93
        1
 93
        1
 93
        1
 93
        1
 93
        1
 93
        1
 93
        1
 92
        1
  2
StyleCoExistanceType
 93
        1
 93
        1
 93
        1
 93
        1
 93
        1
 93
        1
 93
        2
 93
        0
 93
        0
 93
        0
 93
        0
 93
        0
 93
        0
 93
        0
 93
        0
  0
DMMAPMANAGER
  5
2D8
102
{ACAD_REACTORS
330
2D7
102
}
330
2D7
100
AcDbDictionary
281
     1
  3
DisplayMap1
350
2E1
100
AcDbDictionaryWithDefault
340
2E1
100
AcMapDMMapManager
 70
     1
340
2E1
  0
DMSTYLELIBRARY
  5
2D9
102
{ACAD_REACTORS
330
2D7
102
}
330
2D7
100
AcMapDMStyleLibrary
 70
     1
 70
     1
360
2DA
  0
DICTIONARY
  5
2EE
102
{ACAD_REACTORS
330
2D7
102
}
330
2D7
100
AcDbDictionary
281
     1
  0
DICTIONARY
  5
316
330
2D5
100
AcDbDictionary
280
     1
281
     1
  3
ACAD_XREC_ROUNDTRIP
360
317
  0
DICTIONARY
  5
314
330
2D4
100
AcDbDictionary
280
     1
281
     1
  3
ACAD_XREC_ROUNDTRIP
360
315
  0
DICTIONARY
  5
318
330
2E3
100
AcDbDictionary
280
     1
281
     1
  3
ACAD_ROUNDTRIP_2008_TABLESTYLE_CELLSTYLEMAP
360
319
  0
DICTIONARY
  5
312
330
6A
100
AcDbDictionary
280
     1
281
     1
  3
ACAD_ROUNDTRIP_2008_TABLESTYLE_CELLSTYLEMAP
360
313
  0
DMMAP
  5
2E1
102
{ACAD_REACTORS
330
2D8
330
2E4
102
}
330
2D8
100
AcMapDMMap
 70
     1
  1
Default
 70
     1
330
0
100
AcMapDMMap
 70
     1
 90
        1
360
2E4
 90
        1
 40
1.797693134862314E+99
 70
     1
100
AcMapDMMap
 70
     6
 70
     0
 40
1.797693134862314E+99
290
     1
290
     1
 40
1.0
 40
3.0
  1
Legend
 90
        1
 40
1.797693134862314E+99
  1

 70
     0
 40
1.0
 70
     1
 90
        0
 90
        1
360
2E5
 40
385.0518254902738
290
     0
290
     1
 40
1.0
 90
    40
290
     0
290
     1
 40
127782.6787794533
 40
6568017.915394372
 40
127909.2116224572
 40
6568081.181815876
  1

290
     1
 40
45.0
 40
45.0
  0
DMSTYLECATEGORY
  5
2DA
102
{ACAD_REACTORS
330
2D9
102
}
330
2D9
100
AcMapDMStyleCategory
 70
     1
  1
Display Styles
 70
     0
  0
XRECORD
  5
317
102
{ACAD_REACTORS
330
316
102
}
330
316
100
AcDbXrecord
280
     1
102
DISPLAYNAME
  1
Metric50
102
FLAGS
 90
        0
  0
XRECORD
  5
315
102
{ACAD_REACTORS
330
314
102
}
330
314
100
AcDbXrecord
280
     1
102
DISPLAYNAME
  1
Metric50
102
FLAGS
 90
        0
  0
CELLSTYLEMAP
  5
319
102
{ACAD_REACTORS
330
318
102
}
330
318
100
AcDbCellStyleMap
 90
        3
300
CELLSTYLE
  1
TABLEFORMAT_BEGIN
 90
        5
170
     1
 91
        0
 92
    32768
 62
   257
 93
        1
300
CONTENTFORMAT
  1
CONTENTFORMAT_BEGIN
 90
        0
 91
        0
 92
      512
 93
        0
300

 40
0.0
140
1.0
 94
        5
 62
     0
340
2E2
144
6.0
309
CONTENTFORMAT_END
171
     1
301
MARGIN
  1
CELLMARGIN_BEGIN
 40
1.5
 40
1.5
 40
1.5
 40
1.5
 40
0.18
 40
0.18
309
CELLMARGIN_END
 94
        6
 95
        1
302
GRIDFORMAT
  1
GRIDFORMAT_BEGIN
 90
        0
 91
        1
 62
     0
 92
       -2
340
0
 93
        1
 40
0.045
309
GRIDFORMAT_END
 95
        2
302
GRIDFORMAT
  1
GRIDFORMAT_BEGIN
 90
        0
 91
        1
 62
     0
 92
       -2
340
0
 93
        1
 40
0.045
309
GRIDFORMAT_END
 95
        4
302
GRIDFORMAT
  1
GRIDFORMAT_BEGIN
 90
        0
 91
        1
 62
     0
 92
       -2
340
0
 93
        1
 40
0.045
309
GRIDFORMAT_END
 95
        8
302
GRIDFORMAT
  1
GRIDFORMAT_BEGIN
 90
        0
 91
        1
 62
     0
 92
       -2
340
0
 93
        1
 40
0.045
309
GRIDFORMAT_END
 95
       16
302
GRIDFORMAT
  1
GRIDFORMAT_BEGIN
 90
        0
 91
        1
 62
     0
 92
       -2
340
0
 93
        1
 40
0.045
309
GRIDFORMAT_END
 95
       32
302
GRIDFORMAT
  1
GRIDFORMAT_BEGIN
 90
        0
 91
        1
 62
     0
 92
       -2
340
0
 93
        1
 40
0.045
309
GRIDFORMAT_END
309
TABLEFORMAT_END
  1
CELLSTYLE_BEGIN
 90
        1
 91
        1
300
_TITLE
309
CELLSTYLE_END
300
CELLSTYLE
  1
TABLEFORMAT_BEGIN
 90
        5
170
     1
 91
        0
 92
        0
 62
   257
 93
        1
300
CONTENTFORMAT
  1
CONTENTFORMAT_BEGIN
 90
        0
 91
        0
 92
      512
 93
        0
300

 40
0.0
140
1.0
 94
        4
 62
     0
340
2E2
144
4.5
309
CONTENTFORMAT_END
171
     1
301
MARGIN
  1
CELLMARGIN_BEGIN
 40
1.5
 40
1.5
 40
1.5
 40
1.5
 40
0.18
 40
0.18
309
CELLMARGIN_END
 94
        6
 95
        1
302
GRIDFORMAT
  1
GRIDFORMAT_BEGIN
 90
        0
 91
        1
 62
     0
 92
       -2
340
0
 93
        1
 40
0.045
309
GRIDFORMAT_END
 95
        2
302
GRIDFORMAT
  1
GRIDFORMAT_BEGIN
 90
        0
 91
        1
 62
     0
 92
       -2
340
0
 93
        1
 40
0.045
309
GRIDFORMAT_END
 95
        4
302
GRIDFORMAT
  1
GRIDFORMAT_BEGIN
 90
        0
 91
        1
 62
     0
 92
       -2
340
0
 93
        1
 40
0.045
309
GRIDFORMAT_END
 95
        8
302
GRIDFORMAT
  1
GRIDFORMAT_BEGIN
 90
        0
 91
        1
 62
     0
 92
       -2
340
0
 93
        1
 40
0.045
309
GRIDFORMAT_END
 95
       16
302
GRIDFORMAT
  1
GRIDFORMAT_BEGIN
 90
        0
 91
        1
 62
     0
 92
       -2
340
0
 93
        1
 40
0.045
309
GRIDFORMAT_END
 95
       32
302
GRIDFORMAT
  1
GRIDFORMAT_BEGIN
 90
        0
 91
        1
 62
     0
 92
       -2
340
0
 93
        1
 40
0.045
309
GRIDFORMAT_END
309
TABLEFORMAT_END
  1
CELLSTYLE_BEGIN
 90
        2
 91
        1
300
_HEADER
309
CELLSTYLE_END
300
CELLSTYLE
  1
TABLEFORMAT_BEGIN
 90
        5
170
     1
 91
        0
 92
        0
 62
   257
 93
        1
300
CONTENTFORMAT
  1
CONTENTFORMAT_BEGIN
 90
        0
 91
        0
 92
      512
 93
        0
300

 40
0.0
140
1.0
 94
        4
 62
     0
340
2E2
144
4.5
309
CONTENTFORMAT_END
171
     1
301
MARGIN
  1
CELLMARGIN_BEGIN
 40
1.5
 40
1.5
 40
1.5
 40
1.5
 40
0.18
 40
0.18
309
CELLMARGIN_END
 94
        6
 95
        1
302
GRIDFORMAT
  1
GRIDFORMAT_BEGIN
 90
        0
 91
        1
 62
     0
 92
       -2
340
0
 93
        1
 40
0.045
309
GRIDFORMAT_END
 95
        2
302
GRIDFORMAT
  1
GRIDFORMAT_BEGIN
 90
        0
 91
        1
 62
     0
 92
       -2
340
0
 93
        1
 40
0.045
309
GRIDFORMAT_END
 95
        4
302
GRIDFORMAT
  1
GRIDFORMAT_BEGIN
 90
        0
 91
        1
 62
     0
 92
       -2
340
0
 93
        1
 40
0.045
309
GRIDFORMAT_END
 95
        8
302
GRIDFORMAT
  1
GRIDFORMAT_BEGIN
 90
        0
 91
        1
 62
     0
 92
       -2
340
0
 93
        1
 40
0.045
309
GRIDFORMAT_END
 95
       16
302
GRIDFORMAT
  1
GRIDFORMAT_BEGIN
 90
        0
 91
        1
 62
     0
 92
       -2
340
0
 93
        1
 40
0.045
309
GRIDFORMAT_END
 95
       32
302
GRIDFORMAT
  1
GRIDFORMAT_BEGIN
 90
        0
 91
        1
 62
     0
 92
       -2
340
0
 93
        1
 40
0.045
309
GRIDFORMAT_END
309
TABLEFORMAT_END
  1
CELLSTYLE_BEGIN
 90
        3
 91
        2
300
_DATA
309
CELLSTYLE_END
  0
CELLSTYLEMAP
  5
313
102
{ACAD_REACTORS
330
312
102
}
330
312
100
AcDbCellStyleMap
 90
        3
300
CELLSTYLE
  1
TABLEFORMAT_BEGIN
 90
        5
170
     1
 91
        0
 92
    32768
 62
   257
 93
        1
300
CONTENTFORMAT
  1
CONTENTFORMAT_BEGIN
 90
        0
 91
        0
 92
        4
 93
        0
300

 40
0.0
140
1.0
 94
        5
 62
     0
340
11
144
6.0
309
CONTENTFORMAT_END
171
     1
301
MARGIN
  1
CELLMARGIN_BEGIN
 40
1.5
 40
1.5
 40
1.5
 40
1.5
 40
1.5
 40
1.5
309
CELLMARGIN_END
 94
        6
 95
        1
302
GRIDFORMAT
  1
GRIDFORMAT_BEGIN
 90
        0
 91
        1
 62
     0
 92
       -2
340
14
 93
        0
 40
0.045
309
GRIDFORMAT_END
 95
        2
302
GRIDFORMAT
  1
GRIDFORMAT_BEGIN
 90
        0
 91
        1
 62
     0
 92
       -2
340
14
 93
        0
 40
0.045
309
GRIDFORMAT_END
 95
        4
302
GRIDFORMAT
  1
GRIDFORMAT_BEGIN
 90
        0
 91
        1
 62
     0
 92
       -2
340
14
 93
        0
 40
0.045
309
GRIDFORMAT_END
 95
        8
302
GRIDFORMAT
  1
GRIDFORMAT_BEGIN
 90
        0
 91
        1
 62
     0
 92
       -2
340
14
 93
        0
 40
0.045
309
GRIDFORMAT_END
 95
       16
302
GRIDFORMAT
  1
GRIDFORMAT_BEGIN
 90
        0
 91
        1
 62
     0
 92
       -2
340
14
 93
        0
 40
0.045
309
GRIDFORMAT_END
 95
       32
302
GRIDFORMAT
  1
GRIDFORMAT_BEGIN
 90
        0
 91
        1
 62
     0
 92
       -2
340
14
 93
        0
 40
0.045
309
GRIDFORMAT_END
309
TABLEFORMAT_END
  1
CELLSTYLE_BEGIN
 90
        1
 91
        1
300
_TITLE
309
CELLSTYLE_END
300
CELLSTYLE
  1
TABLEFORMAT_BEGIN
 90
        5
170
     1
 91
        0
 92
        0
 62
   257
 93
        1
300
CONTENTFORMAT
  1
CONTENTFORMAT_BEGIN
 90
        0
 91
        0
 92
        4
 93
        0
300

 40
0.0
140
1.0
 94
        5
 62
     0
340
11
144
4.5
309
CONTENTFORMAT_END
171
     1
301
MARGIN
  1
CELLMARGIN_BEGIN
 40
1.5
 40
1.5
 40
1.5
 40
1.5
 40
1.5
 40
1.5
309
CELLMARGIN_END
 94
        6
 95
        1
302
GRIDFORMAT
  1
GRIDFORMAT_BEGIN
 90
        0
 91
        1
 62
     0
 92
       -2
340
14
 93
        0
 40
0.045
309
GRIDFORMAT_END
 95
        2
302
GRIDFORMAT
  1
GRIDFORMAT_BEGIN
 90
        0
 91
        1
 62
     0
 92
       -2
340
14
 93
        0
 40
0.045
309
GRIDFORMAT_END
 95
        4
302
GRIDFORMAT
  1
GRIDFORMAT_BEGIN
 90
        0
 91
        1
 62
     0
 92
       -2
340
14
 93
        0
 40
0.045
309
GRIDFORMAT_END
 95
        8
302
GRIDFORMAT
  1
GRIDFORMAT_BEGIN
 90
        0
 91
        1
 62
     0
 92
       -2
340
14
 93
        0
 40
0.045
309
GRIDFORMAT_END
 95
       16
302
GRIDFORMAT
  1
GRIDFORMAT_BEGIN
 90
        0
 91
        1
 62
     0
 92
       -2
340
14
 93
        0
 40
0.045
309
GRIDFORMAT_END
 95
       32
302
GRIDFORMAT
  1
GRIDFORMAT_BEGIN
 90
        0
 91
        1
 62
     0
 92
       -2
340
14
 93
        0
 40
0.045
309
GRIDFORMAT_END
309
TABLEFORMAT_END
  1
CELLSTYLE_BEGIN
 90
        2
 91
        1
300
_HEADER
309
CELLSTYLE_END
300
CELLSTYLE
  1
TABLEFORMAT_BEGIN
 90
        5
170
     1
 91
        0
 92
        0
 62
   257
 93
        1
300
CONTENTFORMAT
  1
CONTENTFORMAT_BEGIN
 90
        0
 91
        0
 92
        4
 93
        0
300

 40
0.0
140
1.0
 94
        2
 62
     0
340
11
144
4.5
309
CONTENTFORMAT_END
171
     1
301
MARGIN
  1
CELLMARGIN_BEGIN
 40
1.5
 40
1.5
 40
1.5
 40
1.5
 40
1.5
 40
1.5
309
CELLMARGIN_END
 94
        6
 95
        1
302
GRIDFORMAT
  1
GRIDFORMAT_BEGIN
 90
        0
 91
        1
 62
     0
 92
       -2
340
14
 93
        0
 40
0.045
309
GRIDFORMAT_END
 95
        2
302
GRIDFORMAT
  1
GRIDFORMAT_BEGIN
 90
        0
 91
        1
 62
     0
 92
       -2
340
14
 93
        0
 40
0.045
309
GRIDFORMAT_END
 95
        4
302
GRIDFORMAT
  1
GRIDFORMAT_BEGIN
 90
        0
 91
        1
 62
     0
 92
       -2
340
14
 93
        0
 40
0.045
309
GRIDFORMAT_END
 95
        8
302
GRIDFORMAT
  1
GRIDFORMAT_BEGIN
 90
        0
 91
        1
 62
     0
 92
       -2
340
14
 93
        0
 40
0.045
309
GRIDFORMAT_END
 95
       16
302
GRIDFORMAT
  1
GRIDFORMAT_BEGIN
 90
        0
 91
        1
 62
     0
 92
       -2
340
14
 93
        0
 40
0.045
309
GRIDFORMAT_END
 95
       32
302
GRIDFORMAT
  1
GRIDFORMAT_BEGIN
 90
        0
 91
        1
 62
     0
 92
       -2
340
14
 93
        0
 40
0.045
309
GRIDFORMAT_END
309
TABLEFORMAT_END
  1
CELLSTYLE_BEGIN
 90
        3
 91
        2
300
_DATA
309
CELLSTYLE_END
  0
DMBASEELEMENT
  5
2E4
102
{ACAD_XDICTIONARY
360
2E8
102
}
102
{ACAD_REACTORS
330
2E1
102
}
330
2E1
100
AcMapDMBaseElement
 70
     1
  1
Map Base
 70
     1
330
2E1
100
AcMapDMBaseElement
 70
     2
  1

 70
     2
  1

 70
     1
 40
1.797693134862314E+99
 70
     1
 70
     1
 70
     1
 70
     1
360
2E7
100
AcMapDMBaseElement
 70
     1
  0
DMDEFAULTSTYLE
  5
2E5
102
{ACAD_REACTORS
330
2E1
102
}
330
2E1
100
AcMapDMDefaultStyle
 70
     1
 90
        1
  1
Default
100
AcMapDMDefaultStyle
 70
     1
280
   100
 90
     0
1001
AcMapDMDisplayStyleRegapp
1070
     2
1071
        1
1000
Default
1000

  0
DICTIONARY
  5
2E8
330
2E4
100
AcDbDictionary
280
     1
281
     1
  3
AcMapDMSurrogateStyleSets
360
2E9
  0
DMSTYLEREFERENCE
  5
2E7
330
2E4
100
AcMapDMStyleReference
 70
     1
 70
     0
340
2E5
330
2E1
  0
DMSURROGATESTYLESETS
  5
2E9
102
{ACAD_REACTORS
330
2E8
102
}
330
2E8
100
AcMapDMSurrogateStyleSets
 70
     1
  1
Map Base
 70
     1
 40
1.797693134862314E+99
 70
     1
 70
     1
 70
     1
 70
     1
330
2E7
 70
     0
  0
ENDSEC
  0
SECTION
  2
ACDSDATA
 70
     2
 71
     8
  0
ACDSSCHEMA
 90
        0
  1
AcDb_Thumbnail_Schema
  2
AcDbDs::ID
280
    10
 91
        8
  2
Thumbnail_Data
280
    15
 91
        0
101
ACDSRECORD
 95
        0
 90
        1
  2
AcDbDs::TreatedAsObjectData
280
     1
291
     1
101
ACDSRECORD
 95
        0
 90
        2
  2
AcDbDs::Legacy
280
     1
291
     1
101
ACDSRECORD
  1
AcDbDs::ID
 90
        3
  2
AcDs:Indexable
280
     1
291
     1
101
ACDSRECORD
  1
AcDbDs::ID
 90
        4
  2
AcDbDs::HandleAttribute
280
     7
282
     1
  0
ACDSSCHEMA
 90
        1
  1
AcDbDs::TreatedAsObjectDataSchema
  2
AcDbDs::TreatedAsObjectData
280
     1
 91
        0
  0
ACDSSCHEMA
 90
        2
  1
AcDbDs::LegacySchema
  2
AcDbDs::Legacy
280
     1
 91
        0
  0
ACDSSCHEMA
 90
        3
  1
AcDbDs::IndexedPropertySchema
  2
AcDs:Indexable
280
     1
 91
        0
  0
ACDSSCHEMA
 90
        4
  1
AcDbDs::HandleAttributeSchema
  2
AcDbDs::HandleAttribute
280
     7
 91
        1
284
     1
  0
ACDSRECORD
 90
        0
  2
AcDbDs::ID
280
    10
320
22
  2
Thumbnail_Data
280
    15
 94
     1390
310
89504E470D0A1A0A0000000D4948445200000100000000800803000000D36B473800000300504C5445000000000000C8C8C80000000000000000000000000000000000000000000000000000330000660000990000CC0000FF0033000033330033660033990033CC0033FF0066000066330066660066990066CC0066FF0099
310
000099330099660099990099CC0099FF00CC0000CC3300CC6600CC9900CCCC00CCFF00FF0000FF3300FF6600FF9900FFCC00FFFF3300003300333300663300993300CC3300FF3333003333333333663333993333CC3333FF3366003366333366663366993366CC3366FF3399003399333399663399993399CC3399FF33CC00
310
33CC3333CC6633CC9933CCCC33CCFF33FF0033FF3333FF6633FF9933FFCC33FFFF6600006600336600666600996600CC6600FF6633006633336633666633996633CC6633FF6666006666336666666666996666CC6666FF6699006699336699666699996699CC6699FF66CC0066CC3366CC6666CC9966CCCC66CCFF66FF0066
310
FF3366FF6666FF9966FFCC66FFFF9900009900339900669900999900CC9900FF9933009933339933669933999933CC9933FF9966009966339966669966999966CC9966FF9999009999339999669999999999CC9999FF99CC0099CC3399CC6699CC9999CCCC99CCFF99FF0099FF3399FF6699FF9999FFCC99FFFFCC0000CC00
310
33CC0066CC0099CC00CCCC00FFCC3300CC3333CC3366CC3399CC33CCCC33FFCC6600CC6633CC6666CC6699CC66CCCC66FFCC9900CC9933CC9966CC9999CC99CCCC99FFCCCC00CCCC33CCCC66CCCC99CCCCCCCCCCFFCCFF00CCFF33CCFF66CCFF99CCFFCCCCFFFFFF0000FF0033FF0066FF0099FF00CCFF00FFFF3300FF3333
310
FF3366FF3399FF33CCFF33FFFF6600FF6633FF6666FF6699FF66CCFF66FFFF9900FF9933FF9966FF9999FF99CCFF99FFFFCC00FFCC33FFCC66FFCC99FFCCCCFFCCFFFFFF00FFFF33FFFF66FFFF99FFFFCCFFFFFF0000000D0D0D1A1A1A2828283535354343435050505D5D5D6B6B6B787878868686939393A1A1A1AEAEAEBB
310
BBBBC9C9C9D6D6D6E4E4E4F1F1F1FFFFFF00000000000000000000000000000000000000000000000000000000000008F1915C000002294944415478DAED9C4176C3200C44B9FF2574031D8143718236711A3BD8018964518DE6AFD22CFA3C9F602364BB1442082184104208218410420821841042C87FA026CF2F52338717
310
299239FCFD43D2F4FBE7B4439F5240173E9700B9489F46C09BF049F2BF0D9F41800CD3830B9886871660090F2B40ACE9110578C2E3097086C712200BE97104AC85071120EBE9A30BA81F868F2E60165E1558C07DE8EB30BD165401321FFA6DF09B02E69F4E7A7DFEF25B4113208EF470024CE15F03B73237104180ED627771
310
CA0711506D577A6DA802ACC7783270FB1B4280F120B5B4B380A90128019D816C024E06320A381A68FBB7E1D701E6397034D04C05119C80DD8069064009E80CE09C029C02FE0C349C53806B0EE8633DD04C9B2258027E0D6CBB202DAD00DDD703AD9B18C1AB61CF816EEB81E4024AA380BC023C7320D08E985BC0D3405A0196
310
2B21B6004341186857DC67A0194B627401D382005280AA5A8BE2487D21B1A73FEF8B288000D7AE48BF35964840BF315686FD911C020606920878DF260ED61C772E838E06AE05D4584F8C2DF6470606823D31F78980CB7A20DCED318B3DC2D38D13E0025EDBC4AA10CBC045018A5109BB05B4E10F3F6E7E577B00A427B65A10
310
7DB7BA8EB92730A486BD43F83BFF25EE3B03E40BD96F77DD857D67827C9E3D369238FBA201A0EC6E0168D91D020432BB4D006EF4B901F8ECDB124ED2667F18E81F1A4A94FD25F46D319732FB71E04B6AB2BF048E104208218410420821841042C8BFE407C7935136FE5871E30000000049454E44AE426082
  0
ENDSEC
  0
EOF
